Entrada

e|-------------|------------|
B|-------------|------------|
G|-------------|------------|  
D|-------------|--5--4--3---|
A|------2--3---|------------|
E|--5----------|------------|


e|---- -------------------|-------------|------------|
B|---- -------------------|-------------|------------|
G|-14- -------------------|-------------|------------|
D|-14- -7-6-5-------------|-------------|--5--4--3---|
A|-12- --------3--0--2--3-|------2--3---|------------|
E|---- -------------------|--5----------|------------|


e|----------------|
B|----------------|
G|------------12--|
D|------------12--|
A|--5-4-3-2---10--|
E|----------------|

Ponte :

e|---------------------|--------------- ------|
B|---------------------|-x-x-x-x-x-x--- ------|
G|---------9--9--7--9--|-x-x-x-x-x-x-9- -12---|
D|---------9--9--7--9--|-x-x-x-x-x-x-9- -12---|
A|--7-6-5--7--7--5--7--|-x-x-x-x-x-x-7- -10---|
E|---------------------|--------------- ------|


Final :


e|-------------|-----------------------|
B|-------------|-----------------------|
G|-------------|-----------------------|  
D|-------------|--5--4--3--------------|
A|------2--3---|-----------------------|
E|--5----------|-----------3--2--1--0--|


Enviada por Sem inscrição
Nº de acordes: 0