Raimundos

I Saw You Saying

Raimundos

2.739 exibições
Tom: A
Intro: B D A  A G A

          A F#m    A                 F#m       A F#m    A        F#m
E: -------------------------------------------------------------- 
B: -5-2---2-----2-2-2-2-2------ -5-2---2-----2-2-2-2-2-------
G: --2------2-4-------4-2-2>4-2- -----2------2-4-----4-2-2>4-2-
D: ----------4------------------- ----------4--------------------
A: -------------------------- ------------------------------------
E: --------------------------- ------------------------------------


       A  F#m    A                      F#m
Reconheci... a Madonna ali parada no jardim
         A  F#m          A                      F#m   C#m
Não resisti... fui perguntar o que ela achava de mim
                   D     Bm
Eu não sei falar inglês
               E                         A
Ela não entende uma palavra em português
                          F#m              A
I saw you saying that you say that you saw
                          F#m                      Bm
I saw you saying that you say that you saw (I fell good)
           D                             Bm
I feel good because you put your butt on me
           
           D                            A
I feel good because you put your butt on me

Solo:

      A F#m    A       F#m       A F#m      A         F#m
E: -------------------------5-2---2-- -------2----------
B: -5-2-2-2-2-2-2-2-5--5-2--2--5-2---2-2-2-2-2--
G: --2---2-4-----4-2-2>4-2---2----2-4---4-2-2>4-2-
D: --4------------- ---------------4-------------------------
A: --------------- ----------------------------------
E: --------- ----------------------------------

C#m                  D   Bm
Perguntei para o meu pai
                E
O que ela disse
                      A
Ela disse, meu rapaz:
                          F#m              A
I saw you saying that you say that you saw
                          F#m                      Bm
I saw you saying that you say that you saw (I fell good)
           D                             Bm
I feel good because you put your butt on me
           D                             Bm
I feel good because you put your butt on me
           D
I feel good because you put your butt on...

Solo:

     F#m   A    F#m      A         F#m        D    E       A
E: -----5-----------------5--------5-4-------------5-5-4-4-5-5-----
B: ----5-7-7-5-5---------7-5-2-7-7-2-2-7-7-------5-----------
G: ---6------6-7-6-6-7-6---4------6--------7-4-7----------6---
D: -7------------------4---7-4-4-4-7--------------------------7-
A: ---------------------------------------------------------------------
E: -----------------------------------------------------------------------

              F#m                   A
The hula hula song make me feel so strong
              F#m                    A
The hula hula hey goodbye I'm going away
              F#m                   A
The hula hula song make me feel so strong
              F#m                    Bm  D
The hula hula hey goodbye I'm going away
                            Bm D
Because you put your butt on me
                              Bm D
You know you put your butt on me
                               A  F#m Bm C#m A
You know you put your butt on me


Enviada por Sem inscrição
Nº de acordes: 8