Paramore

Thats What You Get

Paramore

3.799 exibições
By-Francis
Location - Carmelite, Lucena City
Cp #- 09287150674 
E-add- *  (friendster)add me!
School- Sacred Heart College


RIOT ALBUM-That's What You Get



Guitar1- {eb bb gb db Ab Eb}
Guitar2- {eb bb gb db Ab Eb}


Intro-



Guitar1

   
|---------------------------------------------|
|---------------------------------------------|
|---------------------------------------------|
|-7-7-7-xxxx-7-7-7-xxxx-9-9-9--xxxx-111111-9--|2x
|-7-7-7-xxxx-7-7-7-xxxx-9-9-9--xxxx-111111-9--|
|-5-5-5-xxxx-5-5-5-xxxx-7-7-7--xxxx-9-9-9--7--|



Guitar2



|-----------------------------------------------------|
|-----------------------------------------------------|
|--------11/13---------13/16--------16/18--131313/11--|2x
|-111111-x/-x---111111-x-/x--131313-x-/x---x-x-x-/x---|
|-111111-9/-11--111111-11/14-131313-14/16--111111/9---|
|-9-9-9--------9-9-9--------111111--------------------|



Verse-



Guitar1 P.M.


|--------------------------------|
|--------------------------------|
|--------------------------------|
|-7-7-7--7-7-7---9-9-9---101010--|4x
|-7-7-7--7-7-7---9-9-9---101010--|
|-5-5-5--5-5-5---7-7-7---9-9-9---|




Guitar2(not sure}

|---7---|---7---|----7----|---7-----|
|---7---|---7---|----7----|---7-----|
|---8---|---8---|----8----|---8-----|
|-------|-------|---------|---------|2x
|-------|-------|---------|---------|
|-------|-------|---------|---------|



Continued...


Guitar1


|---------------------------------------------|
|---------------------------------------------|
|---------------------------------------------|
|-7-7-7-xxxx-7-7-7-xxxx-9-9-9--xxxx-111111-9--|
|-7-7-7-xxxx-7-7-7-xxxx-9-9-9--xxxx-111111-9--|
|-5-5-5-xxxx-5-5-5-xxxx-7-7-7--xxxx-9-9-9--7--|



Guitar2



|-----------------------------------------------------|
|-----------------------------------------------------|
|--------11/13---------13/16--------16/18--131313/11--|
|-111111-x/-x---111111-x-/x--131313-x-/x---x-x-x-/x---|
|-111111-9/-11--111111-11/14-131313-14 /16--111111/9---|
|-9-9-9--------9-9-9--------111111--------------------|


REPEAT Verse





Pre-chorus

G1

|----|
|----|
|----|
|-2~-|
|-2~-|
|-0~-|



G2

|----|
|----|
|-9~-|
|-9~-|
|-7~-|
|----|





Chorus-

Guitar1

|--------------------------------|
|--------------------------------|
|--------99999--6666--44444------|
|-77777--99999--6666--44444------|
|-77777--77777--4444--22222------|
|-55555--------------------------|



Guitar2



|-1616-----1616------------------|--1616-----1616----1414-----1414------|
|-----1717------1717-16-17-16----|-------1717----1717----1212------1212-|
|----------------------------16--|--------------------------------------|
|--------------------------------|--------------------------------------|
|--------------------------------|--------------------------------------|
|--------- ----------------------|--------------------------------------|

GUITAR1

|--------------------------------|
|--------------------------------|
|--------999999--4444444444------|
|-77777--999999--4444444444------|
|-77777--777777--2222222222------|
|-55555--------------------------|

GUITAR2



|-16-16-----16-16------------------|--14-14-----14-14-----------------|
|-----17-17------17-17-16-17-16----|-------12-12-----12-12------------|
|------------------------------16--|----------------------------------|
|----------------------------------|----------------------------------|
|----------------------------------|----------------------------------|
|----------------------------------|----------------------------------|


GUITAR1

|-------------------------|   
|-------------------------|   
|---6666666--4444444------|   
|---6666666--4444444------|2x
|---4444444--2222222------|   
|-------------------------|

GUITAR2(I CAN HEAR GUITAR 2 AT THIS PART...)
not sure of this tab..
|--------------------------------------------------------------------|
|--------------------------------------------------------------------|
|---------------------13-13----16-----13--13-13----------------------|
|--14-14-14--16-16--------------------------------16--16--16--16-----|2x
|--------------------------------------------------------------------|
|--------------------------------------------------------------------|

GUITAR1
|--------------------------------|
|--------------------------------|
|--------999999--4444444444------|
|-77777--999999--4444444444------|
|-77777--777777--2222222222------|
|-55555--------------------------|   



Guitar2

|-16-16-----16-16------------------|--14-14-----14-14-----------------|
|-----17-17------17-17-16-17-16----|-------12-12-----12-12------------|
|------------------------------16--|----------------------------------|
|----------------------------------|----------------------------------|
|----------------------------------|----------------------------------|
|----------------------------------|----------------------------------|





Interlude-



Guitar2



|----------------------------------------------|
|----------------------------------------------|
|-----------------------------------131313/11--|2x
|-111111-xxxx--111111-xxxx-131313---131313/11--|
|-111111-xxxx--111111-xxxx-131313---111111/9---|
|-9-9-9--xxxx--9-9-9--xxxx-111111--------------|


then...

Guitar1


|---------------------------------- -----------|
|---------------------------------------------|
|---------------------------------------------|
|-7-7-7-xxxx-7-7-7-xxxx-9-9-9--xxxx-111111-9--|2x
|-7-7-7-xxxx-7-7-7-xxxx-9-9-9--xxxx-111111-9--|
|-5-5-5-xxxx-5-5-5-xxxx-7-7-7--xxxx-9-9-9--7--|



Guitar2



|-----------------------------------------------------|
|-----------------------------------------------------|
|--------11/13---------13/16--------16/18--131313/11--|2x
|-111111-x/-x---111111-x-/x--131313-x-/x---x-x-x-/x---|
|-111111-9/-11--111111-11/14-131313-14/16--111111/9---|
|-9-9-9--------9-9-9--------111111--------------------|





repeat verse

Pre-chorus

Repeat Chorus


Verse-



Continued...




Guitar1


|---------------------------------------------|

|---------------------------------------------|
|---------------------------------------------|
|-7-7-7-xxxx-7-7-7-xxxx-9-9-9--xxxx-111111-9--|
|-7-7-7-xxxx-7-7-7-xxxx-9-9-9--xxxx-111111-9--|
|-5-5-5-xxxx-5-5-5-xxxx-7-7-7--xxxx-9-9-9--7--|



Guitar2



|-----------------------------------------------------|
|-----------------------------------------------------|
|--------11/13---------13/16--------16/18--131313/11--|
|-111111-x/-x---111111-x-/x--131313-x-/x---x-x-x-/x---|
|-111111-9/-11--111111-11/14-131313-14/16--111111/9---|
|-9-9-9--------9-9-9--------111111--------------------|





Chorus-



Drum beats then


  |---PM---|
|-----------------------------|
|-----------------------------|
|-----------------------------|
|--9-9-9-9-9-99999------------|
|--9-9-9-9-9-99999------------|
|--7-7-7-7-7-77777------------|



Repeat chorus then



G1

|----------------------|
|----------------------|
|-------------------9~-|
|-777-xxxx-777-xxxx-9~-|
|-777-xxxx-777-xxxx-7~-|
|-555-xxxx-555-xxxx----|


G2
|-------------------------12~-|
|-------------------------12~-|
|-------------------------13~-|
|-111111-xxxx-111111-xxxx-14~-|
|-111111-xxxx-111111-xxxx-14~-|
|-9-9-9--xxxx-9-9-9--xxxx-12~-|


by *
hi! cordians!...BSN2C




Enviada por Sem inscrição
Nº de acordes: 4