Paramore

Stop This Song

Paramore

226 exibições
AFINAÇÃO EM  '  D  '
Guitarra Base ~>
Intro: 
e|---------------------------------------------------|
B|-4-4-3-4--4-3-4--4-3-4--4-4-4-4-4-3-4--4-3-6-4-3-1-|
G|---------------------------------------------------|
D|---------------------------------------------------|
A|---------------------------------------------------|
D|---------------------------------------------------|

e|----------------------------------------------|
B|-4-4-3-4--4-3-4--4-3-4--4-4-4-4-4-3-4--4-3-6~-|
G|----------------------------------------------|
D|----------------------------------------------|
A|----------------------------------------------|
D|----------------------------------------------|

e|---6----|
B|-6---8~-|
G|--------|
D|--------|
A|--------|
D|--------|

Verso 1:
(Acorde Cm)
e|-3~---------|---6-----11------| 
B|--4~--------|-6---8~-----8----|
G|---5~-------|--------------10-|
D|----5~------|-----------------|
A|-----3~-----|-----------------|
D|------------|-----------------|
a primeira vez| depois de 3 vezes.

e|----|
B|----|
G|-8--|
D|-8--|
A|-6--|
D|----|

Pre- Refrão:
e|-11--------10--------11-------8--------|
B|---11--(x2)--11--(x3)--8-(x2)--8--(x3)-|
G|-----12--------12-------10------10-----|
D|---------------------------------------|
A|---------------------------------------|
D|---------------------------------------|

e|-11--------13--------15---------18-15-------|
B|---11--(x2)--11--(x3)--13--(x3)-------16-13-|
G|-----12--------12--------15-----------------|
D|--------------------------------------------|
A|--------------------------------------------|
D|--------------------------------------------|

Refrão:
e|---------------------------------------------------|
B|-4-4-3-4--4-3-4--4-3-4--4-4-4-4-4-3-4--4-3-6-4-3-1-|
G|---------------------------------------------------|
D|---------------------------------------------------|
A|---------------------------------------------------|
D|---------------------------------------------------|

e|----------------------------------------------|
B|-4-4-3-4--4-3-4--4-3-4--4-4-4-4-4-3-4--4-3-6~-|
G|----------------------------------------------|
D|----------------------------------------------|
A|----------------------------------------------|
D|----------------------------------------------|

e|---6----|
B|-6---8~-|
G|--------|
D|--------|
A|--------|
D|--------|

Verso 2:
(acorde Cm)
e|-3~-----|  |-----6------|
B|--4~----|  |-3/4--(x15)-|
G|---5~---|x2|------------|
D|----5~--|  |------------|
A|-----3~-|  |------------|
D|--------|  |------------|

Pre-Refrão:
e|-11--------10--------11-------8--------|
B|---11--(x2)--11--(x3)--8-(x2)--8--(x3)-|
G|-----12--------12-------10------10-----|
D|---------------------------------------|
A|---------------------------------------|
D|---------------------------------------|

e|-11--------13--------15---------18-15-------|
B|---11--(x2)--11--(x3)--13--(x3)-------16-13-|
G|-----12--------12--------15-----------------|
D|--------------------------------------------|
A|--------------------------------------------|
D|--------------------------------------------|

Refrão:
Toque duas vezes
e|---------------------------------------------------|
B|-4-4-3-4--4-3-4--4-3-4--4-4-4-4-4-3-4--4-3-6-4-3-1-|
G|---------------------------------------------------|
D|---------------------------------------------------|
A|---------------------------------------------------|
D|---------------------------------------------------|

e|----------------------------------------------|
B|-4-4-3-4--4-3-4--4-3-4--4-4-4-4-4-3-4--4-3-6~-|
G|----------------------------------------------|
D|----------------------------------------------|
A|----------------------------------------------|
D|----------------------------------------------|

Ponte:
e|-------------------------|
B|-------------------------|
G|-7777-8888-10101010-5555-|
D|-xxxx-xxxx-x-x-x-x--xxxx-|
A|-5555-6666-8-8-8-8--3333-|
D|-------------------------|

toque esse proximo duas vezes, mas mude o final.
e|------------------|
B|------------------|
G|-55-577-788-81010-|
D|-xx-xxx-xxx-xx-x--|
A|-33-355-566-68-8--|
D|------------------|

e|--------------------|
B|--------------------|
G|-1088-877-788-81212-|
D|-x-xx-xxx-xxx-xx-x--|
A|-8-66-655-566-61012-|
D|--------------------|

e|------------------|
B|------------------|
G|-55-577-788-81010-|
D|-xx-xxx-xxx-xx-x--|
A|-33-355-566-68-8--|
D|------------------|

Primeiro FINAL !
e|----------------|
B|----------------|
G|-77-777-733-333-|
D|-xx-xxx-xxx-xxx-|
A|-55-555-511-111-|
D|----------------|
Segundo FINAL!
e|-----------------------|
B|-----------------------|
G|-7777-8888-10101010-5~-|
D|-xxxx-xxxx-x-x-x-x--x--|
A|-5555-6666-8-8-8-8--3~-|
D|-----------------------|

e|----------------------------------------------------|
B|----------------------------------------------------|
G|-5555-7777-8888-10101010-12121212-13131313-15151515-|
D|-xxxx-xxxx-xxxx-x-x-x-x--x-x-x-x--x-x-x-x--x-x-x-x--|
A|-3333-5555-6666-8-8-8-8--10101010-11111111-13131313-|
D|----------------------------------------------------|

Refrão:
Toque duas vezes
e|---------------------------------------------------|
B|-4-4-3-4--4-3-4--4-3-4--4-4-4-4-4-3-4--4-3-6-4-3-1-|
G|---------------------------------------------------|
D|---------------------------------------------------|
A|---------------------------------------------------|
D|---------------------------------------------------|

e|----------------------------------------------|
B|-4-4-3-4--4-3-4--4-3-4--4-4-4-4-4-3-4--4-3-6~-|
G|----------------------------------------------|
D|----------------------------------------------|
A|----------------------------------------------|
D|----------------------------------------------|

Outro:
(Acorde Cm)
e|-3~-----|
B|--4~----|
G|---5~---| x2
D|----5~--|
A|-----3~-|
D|--------|

-Guitarra Base ~> 

Intro: 
Toque duas vezes
e|------------------------------|
B|------------------------------|
G|------------------------------|
D|-10------6------5------1------|
A|-10-(x8)-6-(x8)-5-(x8)-1-(x8)-|
D|-10------6------5------1------|

Verse 1:
( Acorde Cm )
e|-3~-----|
B|--4~----|
G|---5~---| x4
D|----5~--|
A|-----3~-|
D|--------|

e|----|
B|----|
G|-8--|
D|-8--|
A|-6--|
D|----|


Pre-Refrão:
e|---------------------|
B|-6~---3~---6~--------|
G|-8~---5~---8~---5~---|
D|-8~---5~---8~---3~---|
A|-6~---3~---6~---3~---|
D|----------------3~---|

Refrão:
[ toque duas vezes ]
e|------------------------------|
B|------------------------------|
G|------------------------------|
D|-10------6------5------1------|
A|-10-(x8)-6-(x8)-5-(x8)-1-(x8)-|
D|-10------6------5------1------|

Verso 2:
(Acorde Cm)
e|-3~-----|
B|--4~----|
G|---5~---| x4
D|----5~--|
A|-----3~-|
D|--------|

Pre-Refrão:
e|---------------------|
B|-6~---3~---6~--------|
G|-8~---5~---8~---5~---|
D|-8~---5~---8~---3~---|
A|-6~---3~---6~---3~---|
D|----------------3~---|

e|------------------------|
B|-6~--1~-5~-6~-----------|
G|-8~--3~-7~-8~--5~---3~--|
D|-8~--3~-7~-8~--3~---1~--|
A|-6~--1~-5~-6~--3~---1~--|
D|---------------3~---1~--|

Refrão:
Toque esse parte quatro tempos da música
e|------------------------------|
B|------------------------------|
G|------------------------------|
D|-10------6------5------1------|
A|-10-(x8)-6-(x8)-5-(x8)-1-(x8)-|
D|-10------6------5------1------|

Ponte:
e|-------------------------|
B|-11111111-8888-----------|
G|-x-x-x-x--xxxx-7777-8888-|
D|-8-8-8-8--5555-xxxx-xxxx-|
A|---------------5555-6666-|
D|-------------------------|

Toque esse duas vezes mas mude o final na segunda vez.
e|----------------|
B|----------------|
G|----------------|
D|-66-666-666-666-|
A|-66-666-666-666-|
D|-66-666-666-666-|

e|-----------------------------|
B|-----------------------------|Esses são 
G|-----------------------------| 10's e não
D|-6/1010-101010-101010-101010-| 1s e 0s
A|-6/1010-101010-101010-101010-|
D|-6/1010-101010-101010-101010-|

e|-------------------|
B|-------------------|esses são 10's e 1's
G|-------------------|
D|-1011-111-111-111-|
A|-1011-111-111-111-|
D|-1011-111-111-111-|

PRIMEIRO FINAL.
e|--------------------|
B|--------------------|
G|--------------------|
D|-1/88-888-855-555-5|
A|-1/88-888-855-555-5|
D|-1/88-888-855-555-5|

SEGUNDO FINAL.
e|-------------------------|
B|-11111111-8888-----------|
G|-x-x-x-x--xxxx-7777-8888-|
D|-8-8-8-8--5555-xxxx-xxxx-|
A|---------------5555-6666-|
D|-------------------------|

e|------------------|
B|------------------|
G|------------------|
D|-6666666666666666-|
A|-6666666666666666-|
D|-6666666666666666-|
PM|............

Refrão:
Toque esse 4 tempos da música
e|------------------------------|
B|------------------------------|
G|------------------------------|
D|-10------6------5------1------|
A|-10-(x8)-6-(x8)-5-(x8)-1-(x8)-|
D|-10------6------5------1------|

Outro:
(acorde Cm)
e|-3~-----|
B|--4~----|
G|---5~---| x2
D|----5~--|
A|-----3~-|
D|--------|


Enviada por Sem inscrição
Nº de acordes: 1