Paramore

Let The Flames Begin

Paramore

546 exibições
Standard Tuning
Jess (*)

Intro/Verse:
Guitar 1 (Repeat until Pre-Chorus)
e|----------------------------------------------------------------------|
B|----7---7---7---7---7---7---7---7----7---7---7---7---7---7---7---7----|
G|--6---6---6---6--------------------4---4---4---4---4---4---4---4------|
D|------------------7---7---7---7---------------------------------------|
A|----------------------------------------------------------------------|
E|----------------------------------------------------------------------|

Guitar 2 (after Guitar 1 runs through it’s part twice; listen for count and timing)
e|-------5------------------------------5-------------------------------|
B|-------------5------------------------------5---------7---------------|
G|---4/6------------6--4------------4/6--------------6------------------|
D|----------------------------------------------------------------------|
A|----------------------------------------------------------------------|
E|----------------------------------------------------------------------|

Pre-Chorus:
Guitar 1
e|----------------------------------------------------------------------|
B|----------------------------------------------------------------------|
G|---7~------------------------------9~---------------------------------|
D|---7~------------------------------9~---------------------------------|
A|---5~------------------------------7~---------------------------------|
E|----------------------------------------------------------------------|

Guitar 2 (after Guitar 1 runs through it’s part twice)
e|----------------------------------------------------------------------|
B|----------------------------------------------------------------------|
G|---9-9-9-7-7-7-6-6-4-4-4-4-4-4-4-4-7-7-7-6-6-6-4-4-2-2-2-2-2-2-2-2----|
D|----------------------------------------------------------------------|
A|----------------------------------------------------------------------|
E|----------------------------------------------------------------------|

Chorus:
e|------------------------------------------------------------------------|
B|------------------------------------------------------------------------|
G|---4444444444444444-6666666666666666-7777777777777777-9999999999999999--|
D|---4444444444444444-7777777777777777-7777777777777777-9999999999999999--|
A|---2222222222222222-7777777777777777-5555555555555555-7777777777777777--|
E|--------------------5555555555555555------------------------------------|

Repeat Verse
Repeat Pre-Chorus (twice)
Repeat Chorus (twice)

Breakdown (Play twice)
e|--9--------------------------9------------------------------|
B|----7---7----------------------7---7------------------------|
G|------9---9---9------------------9---9---6------------------|
D|------------7---7/6/7------------------7---7/6/7------------|
A|----------------------9-9------------------------9-9--------|
E|------------------------------------------------------------|

e|--9---------------------------------------------------------|
B|----7---7---------------------------------------------------|
G|------9---9---9---------------------------------------------|
D|------------7---7/6/7---------6--7—9------------------------|
A|----------------------9-9-----------------------------------|
E|------------------------------------------------------------|

Chorus
Breakdown part until the end

If you have the chorus chords, please, do tell. I’m not very good with chorus chords
The rest should be about 99.9% accurate though.
http://*


Enviada por Sem inscrição
Nº de acordes: 0