Paramore

Brighter

Paramore

293 exibições
ATENÇÃO! afinar em D!

__Intro e refrão__

*guita solo*
e|------------------------------------------------|
B|-----------9-9--------9-9-----------------------|
G|-----------9-9--------9-9---6h7p6h7-------------|  x4
D|-----6h7--------6h7-----------------------------|
A|------------------------------------------------|
D|------------------------------------------------|

e|---------5---7---9------------------------------|
B|---------------------10-10-9--------------------|
G|-----6-7---7---7---9----------------------------|  x1
D|------------------------------------------------|
A|------------------------------------------------|
D|------------------------------------------------|

*guita base* (a base entra junto com a solo qd ela entra no terceiro compasso)
e|-----------------------------------------------------------|
B|-----------------------------------------------------------|
G|---------------------------7-------------------------------|
D|-------7---------4---------7--x16---7-7--x---6-------------|
A|-------7--x16----4--x16----5--------7-7--x---6-------------|
D|-------7---------4------------------7-7--x---6-------------|

__Verso__

*guita solo*
e|------------------------------------------------------- /
B|------------------------------------------------------- /
G|---------14----------------------14-------------------- / 
D|---11-14----14-14--11----(11)-14----14-14-------------- /  
A|------------------------------------------------------- /   
D|------------------------------------------------------- /    
                                                             
                                                              x 4
e|------------------------------------------------------|    -- /
B|-------------12--------12-----------------------------|   --- /
G|----------14----14--------14--------------------------|  ---- /
D|---11-14-----------14--------14-----------------------| ----- /
A|------------------------------------------------------|------ /
D|------------------------------------------------------------- /

__Refrão__

*guita solo*
e|------------------------------------------------|
B|-----------9-9--------9-9-----------------------|
G|-----------9-9--------9-9---6h7p6h7-------------|  x2
D|-----6h7--------6h7-----------------------------|
A|------------------------------------------------|
D|------------------------------------------------|

e|---------5---7---9------------------------------|
B|---------------------10-10-9--------------------|
G|-----6-7---7---7---9----------------------------|  x1
D|------------------------------------------------|
A|------------------------------------------------|
D|------------------------------------------------|

(o refrão toca duas vezes cada vez)

*guita base*
e|-----------------------------------------------------------|
B|-----------------------------------------------------------|
G|---------------------------7-------------------------------|
D|-------7---------4---------7--x16---7-7--xx--6-------------|
A|-------7--x16----4--x16----5--------7-7--xx--6-------------|
D|-------7---------4------------------7-7--xx--6-------------|

(toq duas vezes)

__Verso__

__Refrão__

__Solo_ (tem dois jeitos de tocar o final do solo)
*guita solo* (começo)
e|---------------17-------------------------------|
B|---14---------------14--------------------------|
G|------14-13-14---------14-13-14-11-9------------|
D|------------------------------------------------|
A|------------------------------------------------|
D|------------------------------------------------|

e|---------------17-------------------------------|
B|---14-------------------------------------------|
G|------14-13-14----------------------------------|
D|------------------------------------------------|
A|------------------------------------------------|
D|------------------------------------------------|

*guita solo* #1 (final ao vivo)
e|--17-17-17-16-16-16-14-14-14--------------------|
B|------------------------------14-15-14----------|
G|------------------------------------------------|
D|------------------------------------------------|
A|------------------------------------------------|
D|------------------------------------------------|

*guita solo* #2 (final do cd)
e|--17-16-14---------------------------------------|
B|-----------14-15-17------------------------------|
G|-------------------------------------------------|
D|-------------------------------------------------|
A|-------------------------------------------------|
D|-------------------------------------------------|

(depois do solo toque isto)
e|-------------12----------------12---------------|
B|--9-----9-10----9---9-----9-10----9-------------|
G|------------------------------------------------|
D|------------------------------------------------|
A|------------------------------------------------|
D|------------------------------------------------|
   ^ 8 vezes         ^ 8 vezes

*guita base*
e|------------------------------------------------|
B|------------------------------------------------|
G|------------------------------------------------|
D|--4-----------2--------0-------000-222----------|
A|--4-x8--------2--x8----0-x8----000-222----------|
D|--4-----------2--------0-------000-222----------|

e|------------------------------------------------|
B|------------------------------------------------|
G|------------------------------------------------|
D|--4-----------2--------0-(let ring)-------------|
A|--4-x8--------2--x3----0------------------------|
D|--4-----------2--------0------------------------|

*guita solo*
e|------------------------------------------------------|
B|------------------------------------------------------|
G|---------14----------------------14-------------------|
D|---11-14----14-14--11----(11)-14----14-14-------------|
A|------------------------------------------------------|
D|------------------------------------------------------|

e|------------------------------------------------------|
B|-------------12--------12-----------------------------|
G|----------14----14--------14--------------------------|
D|---11-14-----------14--------14-----------------------|
A|------------------------------------------------------|
D|------------------------------------------------------|

e|------------------------------------------------------|
B|------------------------------------------------------|
G|---------14----------------------14-------------------|
D|---11-14----14-14--11----(11)-14----14-14-------------|
A|------------------------------------------------------|
D|------------------------------------------------------|

__Refrão__

__Solo(de novo)__

agr toque:

*guita solo*
e|--------12--------------------------------------|
B|---9-10-----x(umas 12vezes)-9-10----------------|
G|----------------------------------11b9---------|
D|------------------------------------------------|
A|------------------------------------------------|
D|------------------------------------------------|

e|--------12-----------------------------------------|
B|---9-10----x(mais algumas vezes)--9-10-(deixe soar)|
G|---------------------------------------------------|
D|---------------------------------------------------|
A|---------------------------------------------------|
D|---------------------------------------------------|

*guita base*
e|------------------------------------------------|
B|------------------------------------------------|
G|------------------------------------------------|
D|--4-----------2--------0-------000-222----------|
A|--4-x8--------2--x8----0-x8----000-222----------|
D|--4-----------2--------0-------000-222----------|
                                *** ***

e|------------------------------------------------|
B|------------------------------------------------|
G|------------------------------------------------|
D|--4-----------2--------0-(let ring)-------------|
A|--4-x8--------2--x3----0------------------------|
D|--4-----------2--------0------------------------|

b: bend
: slide pra baixo
/: slide pra cima
h: hammer on
p: pull off
*: accent


Enviada por Sem inscrição
Nº de acordes: 0