Nx Zero

Espero A Minha Vez

Nx Zero

39.074 exibições
Tom: F
Intro: (F C Dm) 2x

E|--------8-----8-----6--5---------8-----8-----6---5---
B|-----6-----6-----6-------------6-----6-----6---------
G|--5------------------------7-------------------------
D|-----------------------------------------------------

F    C          Dm
Se o medo e a cobrança
F     C         Dm
Tiram minha esperança
      C9     Bb9                Dm
Tento me lembrar, de tudo que vivi
                Bb9                      C9
E o que tem por dentro, ninguém pode roubar

                Bb9          F  C9
Descanço agora, pois os dias ruins
 Dm         Bb9
Todo mundo tem
      F      C9
Já jurei pra mim
Dm        Bb9
Não desanimar
       F       C9
E não ter mais pressa
             Dm          Eb9
Eu sei que o mundo vai girar
              Dm        C#9          C9
O mundo vai girar, eu espero a minha vez


(F C Dm) 2x


F     C         Dm
  O suor e o cansaço
F       C              Dm
  Fazem parte dos meus passos
         C9      Bb9          Dm
O que nunca esqueci é de onde vim
                 Bb9                    C9
E o que tem por dentro, ninguém pode roubar

                Bb9      F    C9
Descanço agora, pois os dias ruins
Dm          Bb9
Todo mundo tem
     F       C9
Já jurei pra mim
Dm        Bb9
Não desanimar
      F        C9
E não ter mais pressa
             Dm          Eb9
Eu sei que o mundo vai girar
              Dm        C#9          C9
O mundo vai girar, eu espero a minha vez

  Eb9
E eu não to aqui pra dizer o que é certo e errado
Dm                          C9
Ninguém tá aqui pra viver em vão
        Eb9                       Dm                          C9
Então é bom valer a pena, então é pra valer a pena, ou melhor não


Base Solo: Bb9 F C9 Dm  Bb F C9 Dm  Bb9 F C9 Dm Eb9 Dm
E|--------------------------------------------------------|
B|---------------------------------13--11--10h11p10-------|
G|12^12^-10-10~~-12^12^-10-12~~10-12--10--10--------------|
D|--------------------------------------------------------|
A|--------------------------------------------------------|
E|--------------------------------------------------------|

E|---------13---------------------------------------------------|
B|-----13^---13^-13-10-10h11-10---------------------------------|
G|12-10------------------------12-10--9-9--10-10-12-12-14-14----|
D|--------------------------------------------------------------|
A|--------------------------------------------------------------|
E|--------------------------------------------------------------|

E|15^(full)-13h15p13-13-12-12-------------------------------|
B|---------------------------15-15-13-13--------------------|
G|--------------------------------------15-15-14-14-12-12---|
D|-------------------------------------------------------15-|
A|----------------------------------------------------------|
E|----------------------------------------------------------|

E|-----------------------10h-13-10----10---------------------------------------------------|
B|11-11-11-11-10-10-11-10----------13----13--10------------------------------------13------|
G|10-10-10-10-10-10-10-10-----------------------12^(full)-------10-------10--12-12^--12^-10|
D|-------------------------------------------------------11h-12----11h-12------------------|
A|-----------------------------------------------------------------------------------------|
E|-----------------------------------------------------------------------------------------|

Bb9   F   C9
os dias ruins
Dm           Bb9
Todo mundo tem
     F       C9
Já jurei pra mim
Dm    C9  Bb9
Não desanimar
      F        C9
E não ter mais pressa
             Dm          Eb9                Dm
Eu sei que o mundo vai girar (O mundo vai girar)
     C#9          C9
Eu espero a minha vez...

(F C Dm) 2x


Enviada por Sem inscrição
Nº de acordes: 8