Nirvana

Lithium

Nirvana

Compartilhar:

Tom: E5
Riff1 (main riff)
D------------------------|------------------------|------------------------|------------------------|
A------------------------|------------------------|------------------------|------------------------|
F------------------------|-------6----------2-----|-------5-----------7----|-------4-----------7----|
C-------2----------6-----|-------6----------2-----|-------5-----------7----|-------4-----------7----|
G-------2----------6-----|--4-------4--0-------0--|--3----3--3--3--5--5----|--2----2--2--2--5--5----|
D--0-------0--4-------4--|------------------------|------------------------|------------------------|
   E5         G#5           C#5        A5            C5            D5         B5            D5

Riff1    (guitar+bass)
E5   G#5    C#5    A5      C5       D5       B5      D5
I'm so happy_ cause today___ I found my friends__ They're in my head_
I'm so ugly_ But that's ok___, 'cause so are you__ We've broke our mirrors_
Sunday morning_ is every day___ for all I care__ And I'm not scared_
Light my candles_ in a daze___ 'cause I've found god_ Yeahyeahyeah yeaaaaaahhh
[Chorus]  (Riff1 4x distortion)
               Yeahyeahyeah yeaaaaaahhh________eah    Yeahyeahyeah yeaaaaaahhh
               Yeahyeahyeah yeaaaaaahhh________eah    Yeahyeahyeah yeaaaaaahhh__
___eah___eah   Yeahyeahyeah yeaaaaaahhh________eah    YEAH__!
Bass verse (2&3) riff
F-----------------------------------------------------|
C----------------------5--5-5-7-7-7-7-----------------|
G--7--7-6--6-4--4---------------------2-2-2-2-5-5-5-5-|
D-----------------5--5--------------------------------|
I'm so lonely_ and that's ok___, I shaved my head_ And I'm not sad_
And just maybe_ I'm to blame for all I've heard__  And I'm not sure_
I'm_ so_ excited_ I can't wait__ to meet you there_ And I don't care_
I'm so horny_ but That's ok__, my will is good_   Yeahyeahyeah yeaaaaaahhh
[Repeat Chorus]
Bass bridge riff
F-----------------------|-----------------------|
C-----------------------|-----------------------|
G--0----0--5--3----3----|--0----0-------0-------|
D-----------------------|------------3-------3--|
[Bridge]
A5 C5           A5      C5             A5 C5           A5      C5
I_ like_ it     I'm not gonna crack    I_ miss_ you    I'm not gonna crack
I_ love_ you    I'm not gonna crack    I_ killed_ you  I'm not gonna crack
I_ like_ it     I'm not gonna crack    I_ miss_ you    I'm not gonna crack
I_ love_ you    I'm not gonna crack    I_ killed_ you  I'm not gonna
D5           B5      E5  G5  E5
crack_____________
Bass verse riff 2x
[Repeat 1st verse]  (I'm so happy...)
[Repeat Chorus]
[Repeat Bridge]
Chords:
Tuning: 1 step down (DGCFAD)
  • Enviada por: Sem inscrição
  • Exibições: 7.744
  • Nº de acordes: 8