Intro: Em/D , D/B , F/Bb , Am7 , D4   (2X)

G                     F/G
Não importa o que sou , nem o que tenho
Am7              D4  D
Diante do que Tu és
G                   F/G         Am7           D 
Trago minhas vestes, minha coroa e ofereço a Ti
     Am7    Bm         C          D
Como 24 anciãos e a entrada em Jerusalém 
     Am7           Bm           C             D
A mulher na casa de Simão eu me lanço aos teus pés
                G
Não tenho outro bem além de Ti
                Am
Não tenho outro bem além de Ti
    G/B         C               D
Não tenho outro bem além de Ti, Senhor

Solo: G, F/G, Am7, D
e|-----------------------|------------------------|----------------------|
B|------------------10b--|--15--------------------|----12/1312-10-9-7-5-|
G|-----------------------|-----14b-13-14h15-14p13-|----------------------|
D|-----------------------|------------------------|-12-------------------|
A|-------7-9-7-10--------|------------------------|----------------------|
E|—7-7-9-----------------|------------------------|----------------------|

e|-------------------------|
B|-------------10b-9-10b---|
G|-------9-11--------------|
D|-9-11--------------------|
A|-------------------------|
E|-------------------------|



     G            Am     G/B  C          D
Eu te amo, eu te quero eu te adoro meu senhor (2X)

Solo: G, Am7, C, D   (2X)

e|---------------------|----------------------|------------------------------|
B|------12/15-15-------|-----12/15-15---------|----12/15-15h17-17—8-10/12-10-|
G|--12-----------12-12-|-12-------------12-12-|-12---------------------------|
D|---------------------|----------------------|------------------------------|
A|---------------------|----------------------|------------------------------|
E|---------------------|----------------------|------------------------------|

e|---------------------|--------------------|-------------------|
B|-----12/15-15--------|----12/15-15--------|----12/15-15h17-17-|
G|-12------------12-12-|-12-----------12-12-|-12----------------|
D|---------------------|--------------------|-------------------|
A|---------------------|--------------------|-------------------|
E|---------------------|--------------------|-------------------|

e|-12-14/17—17h19-17-17b--


Enviada por Sem inscrição
Nº de acordes: 12