Maglore

Enquanto Sós

Maglore

175 exibições
Tom: D		

D       D7+       D7
Se esse sol não vier
            D6                      G      A
O amanhã é pouco pra dizer que é só ilusão
 A#°        D
A escuridão
         D7+    D7
Se essa cor não vier
                   D6             G        A      A#°
Preto e branco é todo universo de habitação
         Bm       Bm7+             Bm7     F#m7
Pra se perder, se achar e se entender
      D    D7
E reviver

                  G           A
Eu só queria ter você no coração
         D    D/C#    Bm/A
Sem ter toda essa tristeza
        G           A
Em que pese ser amor
      D    D/C#    Bm/A
Nunca temos a certeza
         G          A   A#°
De que estamos sós, até o fim

D       D7+       D7
Toda dor pesa a fé
                 D6                    G       A
De que um dia o tempo feche essa cicatrização
A#°
Sem dar vazão...
D       D7+       D7
Mas toda paz é tão certa
           D6                         G        A  A#°
Quanto a alegria de saber lidar com a solidão
      Bm        Bm7+     Bm7    F#m7
E perceber, na realidade crer
        D      D7
Pra renascer

                 G           A
Eu não queria emudecer com a razão
     D    D/C#  Bm/A
E emitir tanta frieza
    G                A
Se pudesse ser mais são
    D  D/C#  Bm/A
Ia ver toda beleza
          G
De que enquanto sós...
      A
Somos união

(G  A  D  D/C#  Bm) 2x

E|-------------------------------------------------------------------
B|---------------------------------9-------------------------11-9----
G|--8/10-10-8-----------8-----8-10---8----8-----8/10-10-8----------8-
D|-------------11-8--------11----------11---11------------11---------
A|-------------------11----------------------------------------------
E|-------------------------------------------------------------------

E|----------------------9-----------------------
B|--------------9-9-7-6-------------------------
G|---------8-10---------------------------------
D|--11-11---------------------------------------
A|----------------------------------------------
E|----------------------------------------------


(Refrão)


Enviada por Sem inscrição
Nº de acordes: 15