Legião Urbana

Sete Cidades

Legião Urbana

Compartilhar:

Tom: C
 Intr.: C Am F G

   Guitarra: C                   Am   F                        G
 E|---------|-----------------------------------------------------|
 B|-1-------|------1----------------------------1-----------------|
 G|----0----|----0---0--------0-0-----0-------0---0--------0-0----|
 D|-------3-|-2-3-------3-2-3-----------3-2-3--------3-2-3-----0--|
 A|---------|---------------------3-------------------------------|
 E|---------|-----------------------------------------------------|
  Durante a maior parte da música.

   Obs:Toda vez que for voltar do (G para o C) faça assim.
 E|---------|
 B|---------|
 G|-0-------|
 D|---3-2-3-|
 A|---------|
 E|---------|
 
   Gaita:
 E|-----------|
 B|-----0--1--|
 G|--0--------|
 D|-----5--3--|
 A|--3--------|
 E|-----------|
 
        C    Am         F     G
 Já me acostumei com a tua voz
          C       Am    F  G       C     Am
 Com teu rosto e teu olhar, me partiu em dois
      F      G         C  Am    F    G
 E procuro agora o que é minha metade 
        Am          G
 Quando não estás aqui
       Am             G
 Sinto falta de mim mesmo
          Bb           Am             F  G
 E sinto falta do meu corpo junto ao teu 
 C  Am   F  G
 Meu coração
  C     Am          F   G
 é tão tosco e tão pobre
      C    Am  F G C   Am          F    G 
 Não sabe ainda    os caminhos do mundo 
        Am          G
 Quando não estás aqui
       Am             G
 Tenho medo de mim mesmo
          Bb           Am             F  G (C)
 E sinto falta do teu corpo junto ao meu  
         G                        F       C
 Vem depressa pra mim que eu não sei esperar
        F       Am      G
 Já fizemos promessas demais
        C    F          C                Am            G       F G (C)
 Já me acostumei com a tua voz, quando estou contigo estou em paz 
 
        Am          G
 Quando não estás aqui
      Am          G
 Meu espírito se perde
 (Bb Am F G C)
 Voa longe, longe, longe 
 
(Transcrita por:Gabriel Ysllu Chagas)
  • Enviada por: Sem inscrição
  • Exibições: 2.203
  • Nº de acordes: 5