Legião Urbana

Metal Contra As Nuvens (acústico Mtv)

Legião Urbana

Compartilhar:

Versão 1:
---------

Tom: GIntr: 
Renato Russo: (Em7 A C G D/F# ) (Em7 D C Am G D)  

Dado Villa-Lobos
e|--------------------------------------------------------3-------2----|
B|-------3-----3--------2-----2-------1---3--0-1h0------3---3---3---2--|
G|---0-------0------0-------0-----0----------------0--0-------2--------|Repete 4x
D|-2---2---2------2---2---2-----2---2----------------------------------|
A|---------------------------------------------------------------------|
E|---------------------------------------------------------------------|

e|-----0-------2--------0------------0-------0--3-3-3-2-2--2-3h---2----|
B|---3---3---3---2----1---1--------1---1---1----3-3-3-3-3-------3-3----|
G|-0-------2--------0------------2-------2------0-0-0-2-2---------2----|1x
D|---------------------------------------------------------------------|
A|--------------------------3--2---------------------------------------|
E|---------------------------------------------------------------------|
Durante os versos o Renato faz os acordes e o Dado faz os acordes mas em outras posições 
 (I Parte)
 D                       G   D
 Não sou escravo de ninguém
 G                        D    A  D
 Ninguém senhor do meu domínio
                      C
 Sei o que devo defender
 E por valor eu tenho
    Em                   A  D
 E temo o que agora se defaz
                G    D G
 Viajamos sete léguas
                        D     A D
 Por entre abismos e florestas
                          C
 Por Deus nunca me vi tão só
                          Em
 É a própria fé o que destrói
                     A   D
 Estes são dias desleais
        C   D                     G  Em
 Sou metal - raio, relâmpago e trovão
        C  D                        G  Em
 Sou metal, eu sou o ouro em seu brazão
        C  D                      F   G
 Sou metal: me sabe o sopro do dragão.
Nessa parte  acima 


Versão 2:
---------

Intro.:(Em7 A7 C G D) 4x (Em7 D C Am G D) 4x
Guitarra: 1ª parte (Obs:Essa parte do "G Sol" e do "D Ré", é feita no acústico MTV.)
             Em7             A7                C              G          D
E|---------|---------------------------0-------------------------------------------|
B|---------|--------3-----3--------2-----2-----------1-----1------3----------3-----|
G|---------|---0--------0------0-----------0-----0-------0------4---4------0---0---|4x
D|---------|-2---2----2------2---2-------------2---2---2------5-------5--4-------4-|
A|-0h7~s---|-----------------------------------------------------------------------|
E|-0-----0-|-----------------------------------------------------------------------|

Violão: 2ª parte
   Em7      D        C                Am       G        D                
E|-3-----3--2-----2--0----3-0-----------------------------------|
B|-----0--------3---------------------1-----1--0-----0--------3-|
G|---0--------2---------0------0-0-0------2--------0------------|4x junto com a guitarra
D|-2-----2--0-----0---------------------2--------0------7---7-4-|
A|-------------------3----3-3--3-2-0--0-----0-------------0-----|
E|---------------------------------------------3-----3--5-------|

Guitarra: 2ª parte
E|-----10-------7-------5---3-------------------------3--------2h3p2---|
B|---8----8---7---7s--5---5---5-3-----------5-------3---3------------3-|
G|-9---------------------------------4s5--5---5-0---------0-2----------|1x
D|---------------------------------------------------------------------|
A|---------------------------------------------------------------------|
E|---------------------------------------------------------------------|

Obs:Faça a parte acima  uma e repita a parte abaixo 3 vezes.
E|-----10-------7---------3-5-------------------------3--------2h3p2---|
B|---8----8---7---7s---5~-----3h5p3---------5-------3---3------------3-|
G|-9---------------------------------4s5--5---5-0---------0-2----------|3x
D|---------------------------------------------------------------------|
A|---------------------------------------------------------------------|
E|---------------------------------------------------------------------|

D                         G   D G
  Não sou escravo de ninguém
                        D    A D
Ninguém senhor do meu domínio
                     Cadd9
Sei o que devo defender
E por valor eu tenho
   Em7                  A7  D
E temo o que agora se desfaz
                G    D G
Viajamos sete léguas
                       D     A D
Por entre abismos e florestas
                         Cadd9
Por Deus nunca me vi tão só
                         Em7
é a própria fé o que destrói
                    A7   D
Estes são dias desleais.
    
   C             D               G           G/F#     Em
E|-----------------------------------------------------------------------|
B|-----------------------7-------------3------------------3-0------------|
G|-----5-----5-------7-----7-------------4---------------------0h2h3p2-0-|
D|---5-----5-------7---------7-----5---------5-4-2-----2-----------------|
A|-3-----3-------5---------------5-------------------2-------------------|
E|-----------------------------------------------------------------------|

   C              D                F           G
E|-----------------------------------------------------|
B|------------------------7----------1-----------3-----|
G|-----5------5-------7-----7------2-----2-----4-----4-|
D|---5------5-------7---------7------------------------|
A|-3------3-------5------------------------------------|
E|-----------------------------------------------------|

       C   D                     G  G/F# Em
Sou metal - raio, relâmpago e trovão
       C  D                        G  G/F# Em
Sou metal, eu sou o ouro em seu brazão
       C  D                      F   G
Sou metal: me sabe o sopro do dragão.

   C                        Am      D       Dm        G
E|---3----3----5----3---3----3...-----5...----5...------7-----7-----7-----7-----7-----|
B|-------------------------5...-----7...----6...----------8-----8-----8-----8-----8---|
G|-5----5----5----5---5-------------------------------7-----7-----7-----7-----7-----7-|
D|------------------------------------------------------------------------------------|
A|------------------------------------------------------------------------------------|
E|------------------------------------------------------------------------------------|

C                Am
Reconheço meu pesar:
                  D
Quando tudo é traição,
                  Dm
O que venho encontrar
                      G
é a virtude em outras mãos.

E|-9--8-5-3-3-2h3p2------2---------3---3---3--------4---4---4---|
B|-10-7-5-3-3-3--------3---3------------------------------------|
G|-------------------2---------3s4---4---4---4--4s5---5---5---5-|
D|--------------------------------------------------------------|
A|--------------------------------------------------------------|
E|--------------------------------------------------------------|

A7/4 A7    D    G    E          A7/4 A7
    Minha terra é a terra que é minha
  D         G E  A7/4 A7    D    G
E sempre será        minha terra
        E          A7/4 A7 D            G E A7/7 A7 (Am D)
Tem a lua,  tem estrelas e sempre terá.

Solo
E|-------------------------------------------------------------------------------|
B|-------------------------------------------------------------------------------|
G|-------------------------------------------------------------------------------|2x
D|----------10------------10s12----------------------10-----------12-12-12-12-10-|
A|-12-10-12-----12-11-10---------------------9-10-12----12-11-10-----------------|
E|-------------------------------9-10-11-12--------------------------------------|

Am                     D       Am
Quase acreditei na tua promessa
                          D
E o que vejo é fome e destruição
Am                             D
Perdi a minha sela e a minha espada
Am                        D     
Perdi o meu castelo e minha princesa.

Solo
E|-------------------------------------------------------------------------------|
B|-------------------------------------------------------------------------------|
G|-------------------------------------------------------------------------------|2x
D|----------10------------10s12----------------------10-----------12-12-12-12-10-|
A|-12-10-12-----12-11-10---------------------9-10-12----12-11-10-----------------|
E|-------------------------------9-10-11-12--------------------------------------|

(Am D)
Quase acreditei, quase acreditei
E, por honra, se existir verdade
Existem os tolos e existe o ladrão
E há quem se alimente do que é roubo.
Vou guardar o meu tesouro
Caso você esteja mentindo. 
Olha o sopro do dragão
 
(Obs:Nessa parte o violão faz uma vez sozinho e depois com a guitarra)
Violão:
   Em7      D        C                Am       G        D                
E|-3-----3--2-----2--0----3-0-----------------------------------|
B|-----0--------3---------------------1-----1--0-----0--------3-|
G|---0--------2---------0------0-0-0------2--------0------------|4x
D|-2-----2--0-----0---------------------2--------0------7---7-4-|
A|-------------------3----3-3--3-2-0--0-----0-------------0-----|
E|---------------------------------------------3-----3--5-------|

Guitarra:
E|-----10-------7---------3-5-------------------------3--------2h3p2---|
B|---8----8---7---7s---5~-----3h5p3---------5-------3---3------------3-|
G|-9---------------------------------4s5--5---5-0---------0-2----------|3x
D|---------------------------------------------------------------------|
A|---------------------------------------------------------------------|
E|---------------------------------------------------------------------|

D                    G    D
é a verdade o que assombra
G                D    A D
O descaso que condena,
                      C
A estupidez o que destrói
                    Em
Eu vejo tudo que se foi
                 A7    D
E que não existe mais

(Esse riff é feito pelo Dado na hora do Ré)
E|----------------------------|
B|---2---3---5-3----7---5---3-|
G|----------------------------|
D|-2---4----------7---5---4---|
A|----------------------------|
E|----------------------------|

                        G      D G
Tenho os sentidos já dormentes,
                        D    A7 D
O corpo quer, a alma entende.
                      C
Esta é a terra-de-ninguém
                  Em
Sei que devo resitir -
                            A7    D
Eu quero a espada em minhas mãos.

E|----------------------------|
B|---2---3---5-3----7---5---3-|
G|----------------------------|
D|-2---4----------7---5---4---|
A|----------------------------|
E|----------------------------|


 C             D               G             G/F#   Em
E|-----------------------------------------------------------------------|
B|-----------------------7-------------3------------------3-0------------|
G|-----5-----5-------7-----7-------------4---------------------0h2h3p2-0-|
D|---5-----5-------7---------7-----5---------5-4-2-----2-----------------|
A|-3-----3-------5---------------5-------------------2-------------------|
E|-----------------------------------------------------------------------|

   C              D                F           G
E|-----------------------------------------------------|
B|------------------------7----------1-----------3-----|
G|-----5------5-------7-----7------2-----2-----4-----4-|
D|---5------5-------7---------7------------------------|
A|-3------3-------5------------------------------------|
E|-----------------------------------------------------|

      C   D                     G G/F# G/E 
Sou metal - raio, relâmpago e trovão
       C  D                        G  G/F# G/E
Sou metal, eu sou o ouro em seu brazão
       C  D                      F   G
Sou metal: me sabe o sopro do dragão.

  C                        Am      D       Dm        G
E|---3----3----5----3---3----3...-----5...----5...------3-----3-----3-----3-----3-----|
B|-------------------------5...-----7...----6...----------3-----3-----3-----3-----3---|
G|-5----5----5----5---5-------------------------------0-----0-----0-----0-----0-----0-|
D|------------------------------------------------------------------------------------|
A|------------------------------------------------------------------------------------|
E|------------------------------------------------------------------------------------|

C                    Am
Não me entrego sem lutar -
                D
Tenho ainda coração.
                    Dm
Não aprendi a me render: 
                    G   (Em7 A7 C G D)
Que caia o inimigo então.

Guitarra: 
   Em7             A7                C              G          D
E|---------------------------0-------------------------------------------|
B|--------3-----3--------2-----2-----------1-----1------3----------3-----|
G|---0--------0------0-----------0-----0-------0------4---4------0---0---|5x
D|-2---2----2------2---2-------------2---2---2------5-------5--4-------4-|
A|-----------------------------------------------------------------------|
E|-----------------------------------------------------------------------|
(Obs:Tocar a parte acima 2x antes do canto e depois 3x junto com o canto.)

       Em7 A7            C G D
- Tudo passa, tudo passará
       Em7 A7            C G D
- Tudo passa, tudo passará
       Em7 A7            C G D
- Tudo passa, tudo passará

Guitarra:
  Em7             A7                C              G          D
E|---------------------------0-------------------------------------------|
B|--------3-----3--------2-----2-----------1-----1------3----------3-----|
G|---0--------0------0-----------0-----0-------0------4---4------0---0---|5x
D|-2---2----2------2---2-------------2---2---2------5-------5--4-------4-|
A|-----------------------------------------------------------------------|
E|-----------------------------------------------------------------------|

Violão: 2ª parte
   Em7      D        C                Am       G        D                
E|-3-----3--2-----2--0----3-0-----------------------------------|
B|-----0--------3---------------------1-----1--0-----0--------3-|
G|---0--------2---------0------0-0-0------2--------0------------|4x junto com a guitarra
D|-2-----2--0-----0---------------------2--------0------7---7-4-|
A|-------------------3----3-3--3-2-0--0-----0-------------0-----|
E|---------------------------------------------3-----3--5-------|

Guitarra: 
E|-----10-------7---------3-5-------------------------3--------2h3p2---|
B|---8----8---7---7s---5~-----3h5p3---------5-------3---3------------3-|
G|-9---------------------------------4s5--5---5-0---------0-2----------|4x
D|---------------------------------------------------------------------|
A|---------------------------------------------------------------------|
E|---------------------------------------------------------------------|

           Cadd9      G           Am
E nossa história não estará pelo avesso
            G
Assim, sem final feliz.
Cadd9            Em            Am D D4 D
Teremos coisas bonitas pra contar.
  C9 D  G   C9  D     G
E a..té lá, va..mos viver
Cadd9        D     G
Temos muito ainda por fazer.
Cadd9  D        Em
Não   olhe pra trás -
  Cadd9 D         G
Apenas começamos.
  Cadd9    D      G  Cadd9 D Em
O mundo começa agora -
  Cadd9 D        G C G(O ultimo G deve ser com pestana)
Apenas começamos

ACORDES

Em7  (022033)
A7   (X02020)
C    (X32010)
G    (320033)
Am   (X02210)
D    (XX0232)
Dm   (XX0231)
A7/4 (X02030)
A7   (x02020)
Em   (022000)
C9   (X32033)
F    (133211)
  • Enviada por: Sem inscrição
  • Exibições: 4.168
  • Nº de acordes: 19