Joy Division

Exercise One

Joy Division

99 exibições
Solo:

E----0--0--0--0--0--0--0--0--0--0--0--0--0--0--0--0--0--0--0--0--0--0--0--0---|
B----5--5--5--5--5--7--7--7--7--7--8--8--8--8--7--7--7--7--7--5--5--5--5--5---|
G-----------------------------------------------------------------------------|
D-----------------------------------------------------------------------------|
A-----------------------------------------------------------------------------|
E-----------------------------------------------------------------------------|

Main Chords:

    A       B       C       B       A
E---5--->---7--->---8--->---7--->---5-----------------------------------------|
B---5--->---7--->---8--->---7--->---5-----------------------------------------|
G---6--->---8--->---9--->---8--->---6-----------------------------------------|
D---7--->---9--->---10-->---9--->---7-----------------------------------------|
A---7--->---9--->---10-->---9--->---7-----------------------------------------|
E---5--->---7--->---8--->---7--->---5-----------------------------------------|


Enviada por Sem inscrição
Nº de acordes: 3