Jorge Drexler

Milonga Paraguaya

Jorge Drexler

Compartilhar:

TAB1:

1 |---------0-------|
2 |--0-0---1--0h1-0-|
3 |------0----------|
4 |-----------------|
5 |-----------------|
6 |-3---------------|

TAB2:

1 |---------0-------0-|
2 |--0-0---1--3-1--1--|
3 |------0--------0---|
4 |-------------------|
5 |-------------------|
6 |-3-----------------|

TAB3:

1 |-----------------|
2 |-----0-----------|
3 |---0---0---0---0-|
4 |---------3---2---|
5 |-----------------|
6 |-3---------------|

Introducción: TAB1 (Varias veces) TAB2 VI0_2_3 TAB1

Cantando:

TAB1 (repitiendo)

Milonga Paraguaya, prima lejana de Mangoré,

TAB3  C++
                 G/B               D9/F#          TAB3  C++
¿qué me estará queriendo decir la noche que no lo sé?
                 G/B               D9/F#          TAB2 VI0_2_3 TAB1
¿qué me estará queriendo decir la noche que no lo sé?

(Todo lo demás es igual, con variaciones según el filin del intérprete)

Yo tomo mi guitarra, miro en las grietas del corazón
Como estaré de solo que estoy hablándole a una canción
Como estaré de solo que estoy hablándole a una canción

Pasa un segundo, como pasa una página en blanco que no estrené
Paso la vida buscando un verso que nunca encontraré
Paso la vida buscando un verso que nunca encontraré

Acordes:

C++  : X32000
D9/F#: 200230
G/B  : X20030
  • Enviada por: Sem inscrição
  • Exibições: 687
  • Nº de acordes: 6