Intro: 
e|-------------|-------------|-------------|
B|-------------|-------------|-------------|
G|-------------|5--5-3-------|-------------|                  Até "Well I'm done"
D|---5--5------|-------------|-------------|
A|---------2-3-|-------------|-------------|
E|--3--3-------|-------------|-------------|

e|---------------------------------------|
B|---------------------------------------|
G|-------------7--7----------------------|                  Até "Empty   conversations"
D|---2--2--------------7---7-----7--7----|
A|---------4-5---5-----------------------|
E|--0--0------------4-5--5---4-5--5------|


G5		       C5			G5 
I told you I made dinner plans 
		    C5			 G5 
For you and me and no one else 
	                    C5			             
That don't include your crazy friends 
               Em5			 D5 
Well I'm done with awkward situations 
A5 
Empty   conversations 

       Em5		C5 
Oooo, this is an SOS 
         G5  
Don't wanna second guess 
      D5  
This is the bottom line 
       Em5  
It’s true 
      C5 
I gave my all for you 
    G5 
Now my heart’s in two 
 	D5		      A5 
And I can't find the other half 
              C5			   G5 
It’s like I’m walkin’ on broken glass 
         D5	   A5
Better believe I bled 
         C5 
It’s a call I’ll never get
     
Intro: 
e|-------------|-------------|-------------|
B|-------------|-------------|-------------|
G|-------------|5--5-3-------|-------------|                  Até "Well I'm done"
D|---5--5------|-------------|-------------|
A|---------2-3-|-------------|-------------|
E|--3--3-------|-------------|-------------|


e|---------------------------------------|
B|---------------------------------------|
G|-------------7--7----------------------|                  Até "Empty   conversations"
D|---2--2--------------7---7-----7--7----|
A|---------4-5---5-----------------------|
E|--0--0------------4-5--5---4-5--5------|


 G5                                C5                   G5
So this is where the story ends 
  	 C5 
A conversation on IM 
     Em5 
Well I'm done with texting 
           D5		 A5  
Sorry for the miscommunication 

       Em5		C5 
Oooo, this is an SOS 
         G5  
Don't wanna second guess 
      D5  
This is the bottom line 
       Em5  
It’s true 
      C5 
I gave my all for you 
    G5 
Now my heart’s in two 
 	D5		      A5 
And I can't find the other half 
              C5			   G5 
It’s like I’m walkin’ on broken glass 
         D5	   A5 
Better believe I bled 
         C5 
It’s a call I’ll never get      

Em5	     D5		   
Next time I see you 
A5  
I’m giving you a high Five 
C5 
Cause hugs are overrated  
      D5 
Just FYI 

Chorus  2X


Enviada por mauricio_lg
Nº de acordes: 12