Sem imagem

Hino Dos Estados Unidos Da América

Hinos

3.432 exibições
Star Spangled Banner (Smith & Key)
 
E------------------------------
B------------------------------
G-----------------9-7----------
D--------------10-----10-------
A--10-7---7-10-----------7-9-10
E-------8----------------------
 

E---------------------------------
B---------------------------------
G--------9-7----------------------
D------------10-9-7-9-10-10-------
A--10-10--------------------10-7--
E--------------------------------8
 
E---------------------------------
B---------------------------------
G-----------------9-7-------------
D--------------10-----10----------
A--10-7---7-10-----------7-9-10---
E-------8-------------------------
 
E----------------------------------
B----------------------------------
G--------9-7-----------------------
D-------------10-9-7-9-10-10-------
A--10-10---------------------10-7--
E---------------------------------8
 
E---------------------------------
B-----------8-8-------------------
G--9-9-9-10-----10-9-7-9-10-10----
D---------------------------------
A---------------------------------
E---------------------------------
 
E---------------------------------
B---------------------------------
G--10-9-7-------------------------
D---------10-9-10-7-9-10----------
A------------------------7-9-10---
E---------------------------------
 
E---------------------------------------
B---------------------------------------
G----------------------7-10-9-7---------
D-----10-10-10-9-7-7-7----------10-10-9-
A--10-----------------------------------
E---------------------------------------
 
E------------------------------------
B------------------8-----------------
G-----------7-9-10------7-9-10-7-----
D--------10----------10----------10--
A--10-10-----------------------------
E------------------------------------


Enviada por Sem inscrição
Nº de acordes: 0