Sem imagem

Hino Do Esporte Clube Bahia

Hinos

336 exibições
Tom: C

E|-------------------|-------------5------|
B|--5-5-5-5-5--8-6---|---6-6-6-6-6---8--5-|
G|-----------------7-|--------------------|
D|-------------------|--------------------|
A|-------------------|--------------------|
E|-------------------|--------------------|
"Somos da turma tricolor
Somos da voz do campeão"

E|-8-8-8-8-8h10--8-7-|--5-5-5-5-5-8-7-5---|
B|-------------------|------------------8-|
G|-------------------|--------------------|
D|-------------------|--------------------|
A|-------------------|--------------------|
E|-------------------|--------------------|
"Somos do povo o clamor
Ninguem nos vence em vibração"

E|-------------------|--5-5-5-5--8-7-5-4~-|
B|--5-5-5-5-5--8-6---|--------------------|
G|-----------------7-|--------------------|
D|-------------------|--------------------|
A|-------------------|--------------------|
E|-------------------|--------------------|
"Vamos, avante esquadrão!
Vamos, serás o vencedor!"

E|-5-5-7-8-8-7-5-8---|-(12-12-13~) 3x------|
B|-------------------|--------------------|
G|:------------------|-------------------:| 2x
D|-------------------|--------------------|
A|-------------------|--------------------|
E|-------------------|--------------------|
"Vamos conquistar mais um tento
Bahia! Bahia! Bahia!"
"Ouve esta voz que é teu alento,
Bahia! Bahia! Bahia!"

E|-----5-5-----------|-8-10-10-8-7-5----5-|
B|-8-------5--8-8----|--------------8-6--5|
G|---7---------------|--------------------|
D|-------------------|--------------------|
A|-------------------|--------------------|
E|-------------------|--------------------|
"Mais um, mais um bahia!
Mais um, mais um título de glória!"

E|-----5-5-----------|-----5(5x)-7(5x)-8-8|
B|-8-------5--8-8----|-8-8----------------|
G|---7---------------|--------------------|
D|-------------------|--------------------|
A|-------------------|--------------------|
E|-------------------|--------------------|
"Mais um, mais um bahia!
É assim que se resume a sua história"


Enviada por Sem inscrição
Nº de acordes: 1