Sem imagem

Clube Atlético Mineiro (tablatura)

Hinos

2.368 exibições
E-----------------------------------------
B-----------------------------------------
G-----4--4--2--0-----2--0--------0--------
D--0--------------4--------4--2-----4-----
A-----------------------------------------
E-----------------------------------------
    Nós somos do Clube Atlético Mineiro

E------------------------------------------
B------------------------------------------
G-----2--2--0-----0--2--0------------------
D--0-----------4-----------4--2------------
A--------------------------------2/5-------
E------------------------------------------
    Jogamos com muita raça e amor...

E----------------------------------------
B----------------------------------------
G-----4--4--2--0-----2--0----------------
D--0--------------4--------4--2--2--0----
A----------------------------------------
E----------------------------------------
     Vibramos com alegria nas vitórias

E---------------------------------------------------
B---------------------------------------------------
G-------0--2--0--------------2--5--4-----2-----0----
D--4-4-----------4--2--0--4-----------5-----2-------
A---------------------------------------------------
E---------------------------------------------------
    Clube Atlético Mineiro, galo forte vingador.


Enviada por Sem inscrição
Nº de acordes: 0