All the song goes whit PALM MUTE eccep in the chours and in the bridge.

A5                       F5
I like the way you never sleep
A5                              F5
And the promises you never keep
              E5          D5     C5 
I like the way you say hello
          C5        D5                    
And make it sound like time to go.


A5                       F5
I like the scar above your lip
A5                              F5
The way it makes your feelings slip
                   E5          D5     C5 
But they are never what you feel
          C5        D5               
Oh so fake but completely real


CHOURS
	A5>       F5        C5
Don't you think it's weird? Uh uh uh uh uh uh
D5                    A5      F5            C5
Weirder than weird uh uh uh uh uh uh

((( IN THIS PART GOES THR RIFF 1 UNTIL “ like about you “ in the “ you” go C5 )))

That's what you are
That's what you wanna be
	C5>
What I like about you
Is what you like about me
Don't you think is weird!!!!  <<<<<< (((HERE DON’T PLAY GUITAR THEN 
RIFF 3)))


A5                       F5
I like the rules that don't apply
A5                       F5
I like the good things past you by
     E5          D5     C5 
Standing there without a plan
          C5        D5                    F5
That's why you're such a happy man


CHOURS

	A5>       F5        C5
Don't you think it's weird? Uh uh uh uh uh uh
D5                    A5      F5            C5
Weirder than weird uh uh uh uh uh uh
((( IN THIS PART GOES THR RIFF 1 UNTIL “ like about you “ in the “ you” go C5 )))
That's what you are
That's what you wanna be
	C5>
What I like about you
Is what you like about me
Don't you think is weird!!!!

((( IN THE BRIDGE GOES WIHT THE RIFF 2)))

1,2,I wanna make some changes
I wanna my money back
I wanna start up again, yeah
I wanna talk to strangers
I wanna be with you
But I just don't know where and when

A5 - F5 - C5

D5 - A5 - F5C5
That's what you are    <<<<<<<<(((( GO RIFF 1 )))
That's what you wanna be
What I like about you
Is what you like about me

	A5>       F5        C5
Don't you think it's weird? Uh uh uh uh uh uh
D5                    A5      F5            C5
Weirder than weird uh uh uh uh uh uh
That's what you are  <<<<<<<<(((( GO RIFF 1 )))
That'a what you wanna be
                          C5
What I like about you
Is what you like about me
Don't you think it's weird?!


RIFF 1
  A5                 B5                    C5 
e|----------------------------------------------------
B|----------------------------------------------------
G|----------------------------------------------------
D|-------------------------------------7-7-7-7-7-7-7--
A|-7----7----8---9---9---8---------5-5-5-5-5-5-5------
E|-----5----5---5---7---7---7-------------------------

 
RIFF2

e|-------------------------------------------------------------
B|-------------------------------------------------------------
G|-------------------------------------------------------------
D|-------------------------------------------------------------
A|-------------------------------------------------------------
E|--8-8-7-8-7-4-7-8-8-7-8-7-4~~-8-8-7-8-7-5-0-1-1-1-1-1-1-1-1--

e|-----------------------------------------------
B|-----------------------------------------------
G|-----------------------------------------------
D|-----------------------------------------------
A|-----------------------------------------------
E|--8-8-7-8-7-4-7-8-8-7-8-7-5-0-3-3-3-3-3-3-3-3--

RIFF 3

e|------------
B|------------
G|------------
D|------------
A|-5-3-5------
E|----------5-


Enviada por Sem inscrição
Nº de acordes: 7