Hilary Duff

Mr. James Dean

Hilary Duff

117 exibições
RIFF 1
(B   D  A  E ) <<< bass >>>
All the king's horses
Wouldn't make me believe
Even when the walls come crashing down
You still can never be
A rebel without a cause
A rebel to the first degree
Why don't you stop trying so hard?
Cause there's no men, man enough to be


CHORUS
                          B	D
Another James Dean
D	A
You're nothing like him
	E
So don't call me friend
B	D
Cause you're nothing like me
D	A
Even when the world stops turning
E	B		D
There will never be another James Dean
D	A	E
You'll never be James Dean

RIFF2

RIFF1
(B   D  A  E ) <<< bass >>>
All the faces you're making
Save it for the scene
All the people you're faking
Why was it only me?
I saw right into your eyes
And you're just not so deep
I've had too many cries
Mr. Prince Charming
	    B	       B
Sorry, you could never be

D	A
   Cause you're nothing like him
	   E
   So don't call me friend
	   B
   Cause you're nothing like me
   D	   A	     E
   Even when the world stops turning, the world stops turning

D	A
Now you move to the next town
E	D
Next set, next girl, Have fun baby
A	E
I'm taking back my world

(SOLO) The base is   << B  D  A  E  >>


( B  D  A  E )
Here we are face to face
Same energy, you and me
Don't wanna be enemies (x4)


RIFF 1
e|----10---9---10------------------------
B|--------------------12---10---12---10--
G|---------------------------------------
D|---------------------------------------
A|---------------------------------------
E|---------------------------------------

CHORUS

e|---------------------------------------------------------------------------------
B|---------------------------------------------------------------------------------
G|----4-4-4-4-4-4-4--------7-7-7-7-7-7-7--------------------------9---9v------9—9v-
D|----4-4-4-4-4-4-4--------7-7-7-7-7-7-7---7-7-7-7-7-7-7-------9---9-------9--9----
A|----2-2-2-2-2-2-2--------5-5-5-5-5-5-5---7-7-7-7-7-7-7-------7-----------7-------
E|-------------------------------------------------5-5-5-5-5-5-5-------------------

Riff 2
e|----------------------------------------------------------
B|----------------------------------------------------------
G|----------------------------------------------------------
D|--------5----5----------7----7----------------------------
A|---2-2----2-------5-5----5-----------7----7------2----2---
E|------------------------------------5-5---5-----0-0---0---


Enviada por Sem inscrição
Nº de acordes: 9