Sem imagem

Follow You Down

Gin Blossoms

Compartilhar:

Da trilha sonora de 'Como perder um cara em 10 dias'

Bom, apesar de ñ ter conseguido pegar o solo mto bem, espero que gostem
da minha transcrição.
Shang S.H.

Intro: 
Obs.: ~ slide
      G         Em        C
|---------------------------------------|     
|---3~5-3-0-1-3-5-3-0-1-3-----1-0-------|
|-------------------------0-------2-0---|  +
|---------------------------------------|
|---------------------------------------|
|---------------------------------------|

         G         Em        C                          
   |-------------------------------------------|   
   |---3~5-3-0-1-3-5-3-0-1-3-5-3-0-3-5-3-0-3---|   
2X |-------------------------------------------| + 
   |-------------------------------------------|   
   |-------------------------------------------|  
   |-------------------------------------------|   

      G         Em        C          D
|------------------------------------2---|
|---3~5-3-0-1-3-5-3-0-1-3------------3---|
|-------------------------0----5~3-3-2---|
|------------------------------------0---|
|----------------------------------------|
|----------------------------------------|
       

(D  Em  C)
Did you see the sky
I think it means that we've been lost
Maybe one less time is all we need
I can't really help it if my tongue's all tied in knots
Jumping off a bridge
It's just the farthest that I've ever been


Refrão:
G             Em
 Anywhere you go
      C
 I'll follow you down
D               Em             C
 Anyplace but those I know by heart
G             Em
 Anywhere you go
      C
 I'll follow you down
D                  Em              C
 I'll follow you down, but not that far


G  Em  C (com riff no fundo)
(D  Em  C)
I know we're headed somewhere
I can see how far we've come
Still I can't remember anything
Let's not do the wrong
And then I'll swear it might be fun
It's along way down
When all the knots we've tied
Have come undone

REFRÃO

Solo: (ñ tenho certeza!) 2X(G  Em  C) + 2X(D  Em  C) + C
(se alguém descobrir exatamente qual a base do solo, avise-me ou corrija)

(D  Em  C)
How are you gonna ever find your place
Running in an artificial pace
Are they gonna find us
Lying face down in the sand
So what the hell
We've already been forever damned

2X REFRÃO

D                  Em              C
 I'll follow you down, but not that far (follow you down)
D                  Em              C
 I'll follow you down, but not that far (follow you down)
D                  Em              C
 I'll follow you down, but not that far (follow you down)

G  Em  C até o fim com riff da intro. no fundo...
  • Enviada por: Sem inscrição
  • Exibições: 420
  • Nº de acordes: 4