Foo Fighters

Everlong (Acústico)

Foo Fighters

14.872 exibições
Tom: B

Riff 1:
  D7+
e---------------------------------------------------
B---------------------------------------------------
G---------------------------------------------------
D-----11---11-11---11-----11---11-11-11-------------
A-----9----9--9----9------9----9--9--9--------------
D-0-0----0-------0----0-0----0----------0-----------

  B9
e---------------------------------------------------
B---------------------------------------------------
G---------------------------------------------------
D-----11---11-11---11-----11---11-11-11-------------
A-----9----9--9----9------9----9--9--9--------------
D-9-9----9-------9----9-9----9----------0-----------

  G9              B9
e---------------------------------------------------
B---------------------------------------------------
G---------------------------------------------------
D-----7-------7------11-------11-------11------11---
A-----5-------5------9--------9--------9-------9----
D-5-5---5-5-5---5-9-9---9-9-9----9-9-9---9-9-9----7-


Riff 2:
E---------------------------------------------------  
B---------------------------------------------------
G--6-6-6/7-7-7/9-9-9/11-11-11-11/12\11--------------
D--x-x-x/x-x-x/x-x-x/x--x--x---x-x--x--7-7-7-7------
A--4-4-4/5-5-5/7-7-7/9--9--9---9/10\9--7-7-7-7------
D--0-0-0-0-0-0-0-0-0-0--0--0---0-0--0--5-5-5-5------
                                          

E---------------------------------------------------  
B---------------------------------------------------
G--6-6-6/7-7-7/9-9-9/11-11-11-11/12\11--------------
D--x-x-x/x-x-x/x-x-x/x--x--x---x-x--x--7-7-7-7------
A--4-4-4/5-5-5/7-7-7/9--9--9---9/10\9--7-7-7-7------
D--0-0-0-0-0-0-0-0-0-0--0--0---0-0--0--5-5-5-5------
                                          

E---------------------------------------------------  
B---------------------------------------------------
G--6-6-6/7-7-7/9-9-9/11-11-11-11-12-11--------------
D--x-x-x/x-x-x/x-x-x/x--x--x--x--x--x---------------
A--4-4-4/5-5-5/7-7-7/9--9--9--9--10-9---------------
D--0-0-0-0-0-0-0-0-0-0--0--0--0--0--0---------------


Riff 3: (5x)
E---------------------------------------------------  
B---------------------------------------------------
G--6-6-6/7-7-7/9-9-9/11-11-11-11-12-11--------------
D--x-x-x/x-x-x/x-x-x/x--x--x--x--x--x---------------
A--4-4-4/5-5-5/7-7-7/9--9--9--9--10-9---------------
D--0-0-0-0-0-0-0-0-0-0--0--0--0--0--0---------------
                                      
                                       
Verso 1: Riff 1
D7+          B9                 G9    B9
Hello, I´ve waited here for you, everlong
D7+          B9             G9                B9
Tonight, I throw myself into  and out of the red,
                         D7+  B9  G9  B9 (Riff 1)
Out of her head she sang

D7+            B9                G9      B9
Come down and waste away with me,  down with me
D7+            B9             G9            
Slow how, you wanted it to be,
             B9
I´m over my head, out of her head she sang

Pré-Refrã: Riff 2
And I wonder when I sing along with you

Refrão:
B5                          G5               D5
  If everything could ever feel this real forever
B5                        G5          D5
  If anything could ever be this good again
B5                         G5          D5
  The only thing I´ll ever ask of you
                           A5              G5
You´ve got to promise not to stop when I say when
        D7+  B9  G9  B9 (Riff 1)
She sang

Verso 2: Riff 1
D7+             B9                   G9      B9
Breathe out, so I can breathe you in,  hold you in
D7+             B9                 G9             B9
And now, I know you´ve always been   out of your head,
Out of my head I sang

Pré-Refrã: Riff 2
And I wonder when I sing along with you

Refrão:
B5                          G5               D5
  If everything could ever feel this real forever
B5                        G5          D5
  If anything could ever be this good again
B5                         G5          D5
  The only thing I´ll ever ask of you
                           A5              G5
You´ve got to promise not to stop when I say when
        D7+  B9  G9  B9 (Riff 1)
She sang

Pré-Refrão: Riff 3
And I wonder when I sing along with you

Refrão:
B5                          G5               D5
  If everything could ever feel this real forever
B5                        G5          D5
  If anything could ever be this good again
B5                         G5          D5
  The only thing I´ll ever ask of you 
                           A5              G5     B5
You´ve got to promise not to stop when I say when


Enviada por femaleguitar
Nº de acordes: 9