Fall Out Boy

Get Busy Living Or Get Busy Dying

Fall Out Boy

176 exibições
Intro "This has been said so many times..."
E|---------------||
B|---------------||
G|----9--5-------||
D|-2--9--5--5--2-||
A|-2--7--3--5--2-||
E|-0--------3--0-|| (X2)

Verso "If you are the shores I am the waves..."
E|----------------------------||            |--------------------------------||
B|----------------------------||            |--------------------------------||
G|-4x-2x---------5x-2x--------||     or     |--------------------------------||
D|-4x-2x--4x-2x--5x-2x--5x-2x-||            |-9x-7x--4x-2x--10x-7x--5x-2x----||
A|-2x-0x--4x-2x--3x-0x--5x-2x-||            |-9x-7x--4x-2x--10x-7x--5x-2x----||
E|--------2x-0x---------3x-0x-|| (X4)       |-7x-5x--2x-0x---8x-5x--3x-0x----|| (X4)




Pre-chorus "Your secret's out"
E|---------------||
B|---------------||
G|-5-------------||
D|-5---5-x-5-x-5-||
A|-3---5-x-5-x-5-||
E|-----3-x-3-x-3-||


Chorus "I know this hurts, it was ment to..."
E|----------------||
B|----------------||
G|-5--------9-(7)-||
D|-5--5--9--9-(7)-||
A|-3--5--9--7-(5)-||
E|----3--7--------|| (X2)

pre-chorus X1
verso X2
intro X2
verso X4
pre-chorus X1
chorus X2
pre-chorus X1


Ponte "I used to obsess over living..."
E|-------------------------------------||               E|---------------------------------||
B|-------------------------------------||               B|---------------------------------||
G|-------------------------------------||     or        G|-----7x--5x--4x--(5x)--(7x)------||
D|-2x--12x--10x--9x--(10x)--(12x)-(2x)-||               D|-2x--7x--5x--4x--(5x)--(7x)-(2x)-||
A|-2x--12x--10x--9x--(10x)--(12x)-(2x)-||               A|-2x--5x--3x--2x--(3x)--(5x)-(2x)-||
E|-0x--10x---8x--7x---(8x)--(10x)-(0x)-|| (X4)          E|-0x-------------------------(0x)-|| (X4)


                              
bridge open(no mute) X2
chorus X2
pre-chorus X1
Termine em:
E|----------------||
B|----------------||
G|----------------||
D|--2-------------||
A|--2-------------||
E|--0-------------||


Enviada por Sem inscrição
Nº de acordes: 0