Eyshila

Fala Comigo

Eyshila

Compartilhar:

Tom: G
Intro: G C

G        D             Am    
  Fala comigo, fala, Senhor
    C          D        G
Decidi Te obedecer por amor
      D                Am                C
Eu preciso aprender o caminho do teu coração
G        D               Am         C
  Fala comigo como um pastor que conduz o Seu rebanho
G                   D                    Am   C
Eu desconheço outra voz que não venha de Ti
G              D
Fala comigo, Senhor
                Am    G/B
Eu preciso Te ouvir
C     D         G
Eu preciso Te ouvir
 
Base solo de Guitarra
 - Trecho 1: G 
 - trecho 2: G Em D (4 vezes)
 
G            D                    Am9   C
  Sei que me falas através de um irmão
G               D            C                           Am9
  Eu sei que me falas quando dobro os joelhos em oração
               Em               D     Am
 Eu sei que me falas pela Tua palavra
         Em                  D
E falas comigo até quando Te calas
G              D              Am9 c
  Eu sempre Te ouço na Tribulação
G             D       Am9              G/B  C      
  Tua voz me acalma e traz consolo ao meu  coração
Am              Bm              C 
   E quando não sei que direção tomar
        D               C    
Eu páro tudo pra Te escutar
     Am
Nada é  mais importante
      C                D    G
Eu só quero Te ouvir falar
 
Solo de Guitarra:
Trecho 1, 4 Vezes, No final da frase: '...eu preciso Te ouvir....'
 G
      PM...............
e---------------------------------|
B---8---8-8-8-8-8----8-8-8-8------|
G---------------------------------|
D---------------------------------|
A---------------------------------|
E---------------------------------|
Trecho 2
    G  Em  D        G  Em D           G  Em D      G  Em D
 
e----------10~~~~---------10~~~~--|-------------------------------|
B---8--7------------~8--7---------|----8--7--------8--7-----------|
G---------------------------------|----------7~~~~-------7~~~-----|
D---------------------------------|-------------------------------|
A---------------------------------|-------------------------------|
E---------------------------------|-------------------------------|

  • Enviada por: tinho
  • Exibições: 5.181
  • Nº de acordes: 8