Engenheiros do Hawaii

Refrão de Bolero (acústico Mtv)

Engenheiros do Hawaii

Compartilhar:

Tom: Bm 
Intro: Bm F#m G A 

Bm                F#m 
Eu que falei nem pensar 
 G                  E/G# 
Agora me arrependo roendo as unhas 
A 
Frágeis testemunhas 
      A#° 
De um crime sem perdão 
     Bm           F#m 
Mas eu falei sem pensar 
G                       E/G# 
Coração na mão, como o refrão de um bolero 
            A 
Eu fui sincero 
               A#° 
Como não se pode ser 
    Bm               F#m 
Um erro assim tão vulgar 
 G 
Nos persegue a noite inteira 
  E/G# 
E quando acaba a bebedeira 
  A              A#° 
Ele consegue nos achar 
    Bm F#m 
Num bar, 
        G 
Com um vinho barato 
   E/G# 
Um cigarro no cinzeiro 
       A                 A#°                    Bm  F#m
E uma cara embriagada no espelho do banheiro
 
(evid_up_refrao)(evid_up)(evid_content)
      G          A          Bm  F#m
Teus lábios são labirintos 
       G               A             Bm  F#m 
Que atraem os meus instintos mais sacanas 
      G              A 
Teu olhar sempre distante 
            Bm  F#m 
Sempre me engana 
    G                   A           Bm    F#m
Eu entro sempre na tua dança de cigana
(/evid_content)(/evid_down)(/evid_up_refrao)

Bm                  F#m 
Eu que falei nem pensar 
  G              E/G# 
Agora me arrependo roendo as unhas 
A 
Frágeis testemunhas 
     A#° 
De um crime sem perdão 
   Bm              F#m 
Mas eu falei sem pensar 
G                        E/G# 
Coração na mão, como o refrão de um bolero 
            A 
Eu fui sincero 
            A#° 
Eu fui sincero 

(evid_up_refrao)(evid_up)(evid_content)
      G          A          Bm  F#m
Teus lábios são labirintos 
       G               A             Bm  F#m 
Que atraem os meus instintos mais sacanas 
      G              A 
Teu olhar sempre 
            Bm  F#m 
Sempre me engana 
    G                  A        Bm    F#m   
É o fim do mundo todo dia da semana
(/evid_content)(/evid_down)(/evid_up_refrao)

Base Solo: (G A Bm F#m) 4x

(evid_up_refrao)(evid_up)(evid_content)
      G          A          Bm  F#m
Teus lábios são labirintos 
       G               A             Bm  F#m 
Que atraem os meus instintos mais sacanas 
      G              A 
Teu olhar sempre 
            Bm  F#m 
Sempre me engana 
    G                  A        Bm    F#m   
É o fim do mundo todo dia da semana
(/evid_content)(/evid_down)(/evid_up_refrao)

==================================================
Solo:

E|-------------------|-----------------------------|---------------------|
B|-------------------|-----------------------------|---------------------| 
G|-------------------|-----------------------------|--------7-9-9-9b^----|
D|-------------------|----------------------9p7-9--|---7^9---------------|
A|---------------5---|-----5—7b---7-7-7-7^9--------|---------------------|
E|-------7-7-7^9---7-|---7-------------------------|---------------------|

E|------------------------------------------------|----------------------
B|---10-10-10-10-10-10-10-10----------------------|----------------------
G|---11-11-11-11-11-11-11-11^9--9-9---9-9-9--7----|----------------------
D|------------------------------------------------|---9-7-9---9-8h9-9-9-8
A|------------------------------------------------|----------------------
E|------------------------------------------------|----------------------

E|--------------------|-------------------------------|-----10-12-10-12b-
B|--------------------|--------------------7-10-10^12-|---12-------------
G|--------------------|-------------7----9------------|------------------
D|--------------------|---------7-9-------------------|------------------
A|--9-8-7-------------|-----7^9-----------------------|------------------
E|--------------------|---10--------------------------|------------------

E|-12b12b12b12b12b12b12b12b12b12b12p-10-12-10----|---10--10----5-5-7------
B|-------------------------------------------12--|-12--12------7-7-7------
G|-----------------------------------------------|------------------------
D|-----------------------------------------------|------------------------
A|-----------------------------------------------|------------------------
E|-----------------------------------------------|------------------------

E|--------------------|----------------------------|----------------------
B|---5-5---5----------|----------------------------|----------------------
G|---7-7---7----------|----------------------------|----------------------
D|-------7---7-7-9-9--|----------------------------|----------------------
A|--------------------|----------------------------|----------------------
E|--------------------|----------------------------|----------------------
  • Enviada por: Sem inscrição
  • Exibições: 2.373
  • Nº de acordes: 6