Dibob

Firula

Dibob

111 exibições
Guitarra 2
e---------------------------------------------------
B---------------------------------------------------
G---------------------------------------------------
D-----5-7-9-5---5-7-9-5----9-7-9-7---10-9-7-7-------
A-5-5--------5-5--------7-7-------7-7---------------
E---------------------------------------------------

e---------------------------------------------------
B---------------------------------------------------
G---------------------------------------------------
D---9-7-7--9-7-7---------7--9--10--9--7-------------
A--7------7----------10------------------10---------
E-8------8------10-10--10-10-10--10-10-10-----------

Guitarra 1(Eu naum tenho mta certeza sobre esta parte)
e---------------------------------------------------
B---------------------------------------------------
G------12-11-12-----12-11-12-----12-11-12-----12-11-
D-12-12--------12-12--------14-14--------14-14------
A---------------------------------------------------
E---------------------------------------------------

e---------------------------------------------------
B---------------------------------------------------
G------12-12-9--------12-12-9--------11-12-14-12-12-
D-10-10-------10-10-10-------10-12-12---------------
A---------------------------------------------------
E---------------------------------------------------

Final:

e---------------------------------------------------
B---------------------------------------------------
G------4-5-5-7-7-----4-5-5-7-7----------------------
D-5-5-5---------5-5-5-------------------------------
A---------------------------------------------------
E---------------------------------------------------

e---------------------------------------------------
B---------------------------------------------------
G------4-5-5-7-7-----4-5-5-7-7----------------------
D-5-5-5---------5-5-5-------------------------------
A---------------------------------------------------
E---------------------------------------------------

e---------------------------------------------------
B---------------------------------------------------
G------4-4-4-5-5-----4-4-4-5-5----------------------
D-5-5-5---------5-5-5-------------------------------
A---------------------------------------------------
E---------------------------------------------------

e------------------15~~~~---------------------------
B---------------------------------------------------
G----7-5-5-4----------------------------------------
D-7-7---5-5-7-5-7-5---------------------------------
A---------------------------------------------------
E---------------------------------------------------


Enviada por Sem inscrição
Nº de acordes: 0