CPM 22

Regina Let's Go!

CPM 22

997 exibições
Tom: D 

Intro (Guitarra 1)
|-----------------------------------------
|-----------------------------------------
|-7-7-7-7-7-----------9-9-9-9-9-12-12-12-12-12-
|-7-7-7-7-7-7-7-7-7-7-9-9-9-9-9-12-12-12-12-12-
|-5-5-5-5-5-7-7-7-7-7-7-7-7-7-7-10-10-10-10-12-
|-----------5-5-5-5-5--------------------------

Solo 1 (toca quando a guitarra 1 terminar a intro pela 2ª vez) 
|---------------------------
|---8-7---8-7-8-7-----------
|-7-7-6-7-7-6-7-6-9-7-------
|-7-5-4-7-5-4-5-4-9-7-------
|-5-----5---------7-5-------
|---------------------------


1 voz:
 D                A                              Em
 Em muitas vezes procurei tentar achar onde eu errei
                   G          D
em coisas que nem tem porque. 
                    A 
naquela vez que eu perguntei
                  Em
 você não soube responder
                 G         D
 o que eu tinha feito pra você

(daki até o refrão a 2ª guitarra toca o SOLO 1)

   A              Em 
 agora como vou saber
      G                  D               
 tem horas que é melhor esquecer
   A               Em
 espera o dia amanhecer
     G                       D
 pra ver o que a gente vai fazer

REFRÃO
                         A 
 2 voz: Não me importa mais
                       Em    
        não tem como voltar
                       G     
 1 voz: É eu não vou mais me importar!
         D              A 
 2 Voz: Qualquer coisa faz
                    Em
        Sua idéia mudar
                      G            D 
 1 Voz: A gente ainda pode se entender

Solo 2
Toque a corda solta no intervalo de cada nota:
D|-5-4-2-5-4-2-5-4-7-5-4-7-5-4-7-5-4-2-5-4-2-5-4-2-5-4-2-5-4-|
Final:
D|-7-7-7-5-4-5--7-7-7-5-4-0~-|

D                    A                              Em
Em muitas vezes eu pensei tentar falar o que eu nem sei
                 G 
de coisas que eu já devia saber
                       D
 2 Voz: Mas somente avisei!
                         A              
 1 Voz: Naquela vez te perguntei você não soube
    Em
 responder
                     G       D
  O que eu tinha feito pra você!

(daki até o refrão a 2ª guitarra toca o SOLO 1)

     A               Em
  Agora como eu vou saber?
       G                    D
  Tem horas que é melhor esquecer!
       A            Em
  Espera o dia amanhecer
       G                  D
  Pra ver o que a gente vai fazer

REFRÃO
                         A                    Em
  2 Voz: Não me importa mais, até quando esperar
                         G         D
  1 Voz:  eu não vou mais me importar!
                          A              Em
  2 VoZ: Qualquer coisa faz sua idéia mudar
                            G         D
  1 Voz: quem sabe a gente pode se entender

Solo 3 (Este solo se estende durante o resto da letra)
|---------------------------------------------------------------------------
|-----7-8-7-------7-8-7-------7-8-7-------7-8-7---10-10-10-8-8-8-7-8-7------
|-7-9-------9-7-9-------9-7-9-------9-7-9-------9----------------------7----
|---------------------------------------------------------------------------
|---------------------------------------------------------------------------
|---------------------------------------------------------------------------

|---------------------------
|-----7-8-7-------7-8-7-----
|-7-9-------9-7-9-------9-7-
|---------------------------
|---------------------------
|---------------------------

A,E                G        D     
  Daqui a pouco é tarde demais!
A,Em      G                D
  mas isso é entre eu e você!


Enviada por Sem inscrição
Nº de acordes: 5