CPM 22

Pensamentos Negativos

CPM 22

119 exibições
  e|----------------------------------------------------------------| 
  B|----------------------------------------------------------------| 
  G|----------------------------------------------------------------|   
  D|----3-2-----------3--2-------------0-3-2------------0-3-2-------|  1x
  A|--------3--------------3-----------------3----------------3-----| 
  D|--1-------------1-----------------------------------------------| 

  e|----------------| 
  B|----------------| 
  G|----------------|   
  D|-----3-2--------|  1x
  A|---------3------| 
  D|-0-1------------| 
  
  e|----------------------------------------------------------------| 
  B|----------------------------------------------------------------| 
  G|----------------------------------------------------------------|   
  D|-----3-2--------3-2---------0-3-2----------0-3-2----------------|  3x
  A|--------3----------3-------------3--------------3---------------| 
  D|-1----------1---------------------------------------------------| 
    
   F                                    D 
   Esta noite os meus pensamentos negativos
   Não vão me matar
   F
   Não vou morrer por amor
               D
   Estou morando longe dos momentos que

  Refrão:

  guitarra 2 faz:
  e|------------------------------------------------------------| 
  B|------------------------------------------------------------| 
  G|------------------------------------------------------------|   
  D|-------3-2-----------3--2-----------------------------------|  2x
  A|-----3------------3-------------3--2--3-------3--2--3-------| 
  D|--1-------------1------------------------3-------------3----| 

   F
   Eu sempre quis esquecer     : 2x
             C  G    C G       :  
   Me enfraqueceu              :

  e|------------------------------------------------------------| 
  B|------------------------------------------------------------| 
  G|------------------------------------------------------------|   
  D|----3-2-----------3--5-------------0-3-2--------0-3-5-------| 
  A|--------3--------------3-----------------3------------3-----| 
  D|--1-------------1-------------------------------------------| 

  e|------------------------------------------------------------| 
  B|------------------------------------------------------------| 
  G|------------------------------------------------------------|   
  D|----3-2-----------3--2-------------0-3-2----------0-3-2-----|  3x
  A|--------3--------------3-----------------3--------------3---| 
  D|--1-------------1-------------------------------------------| 
 
   F                                      D
   Me vejo triste por não conseguir ressuscitar
   F                           D
   A esperança que um dia habitou em você

   Refrão:

   guitarra 2 faz:
  e|------------------------------------------------------------| 
  B|------------------------------------------------------------| 
  G|------------------------------------------------------------|   
  D|-------3-2-----------3--2-----------------------------------|  2x
  A|-----3------------3-------------3--2--3-------3--2--3-------| 
  D|--3-------------3------------------------3-------------3----|
  
                             F  
   É, eu sei que eu sempre quis esquecer  : 2x
               C G   C G                  :   
   Me enfraqueceu                         : 

  (F-F-D : -D) 3x

   Final: 
  e|------------------------| 
  B|------------------------| 
  G|------------------------|   
  D|--3---------------------|  
  A|-----2-3----------------| 
  D|------------------------|

   Refão:

  guitarra 2 faz:
  e|------------------------------------------------------------| 
  B|------------------------------------------------------------| 
  G|------------------------------------------------------------|   
  D|-------3-2-----------3--2-----------------------------------|  2x
  A|-----3------------3-------------3--2--3-------3--2--3-------| 
  D|--3-------------3------------------------3-------------3----| 

   F
   Eu sempre quis esquecer     :  2x
             C  G    C G       :  
   Me enfraqueceu              :

    Final:
   (F-C-G) 2x  (F)

    guitarra 2 faz:
e|-------------------------------------------------------------------------------|    
B|-------------------------------------------------------------------------------|    
G|--10--10--10--10--9--5--10--10--10--10--9--7--7--7--9--9--9--7--7--5--7--7--5--| 2x   
D|-------------------------------------------------------------------------------|     
A|--8---8---8---8---7--3--8---8---8---8---7--5--5--5--7--7--7--5--5--3--5--5--3--|   
D|-------------------------------------------------------------------------------|    

                 -----|
                 -----|
 e termina com   --10-|
                 -----|
                 --8--|
                 -----|


Enviada por Sem inscrição
Nº de acordes: 4