CPM 22

Libertar

CPM 22

228 exibições
Intro: B  D  B  D  B  D  E G 
  e|-----------------------------|  
  B|--------2-----3--2-----------|  
  G|--2--2-----2--------2--------|   2x 
  D|-----------------------------|  
  A|-----------------------------|  
  D|-----------------------------|  
 
  e|-----------------------------------------------|            
  B|--------2-----3--2---------2---------5--3--2---|            
  G|--2--2-----2--------2--2------2----------------| 3x         
  D|-----------------------------------------------|            
  A|-----------------------------------------------|            
  D|-----------------------------------------------|            
 
  |-----------------------------|      
  |-----------------------------|     
  |---2b4--2--------2b4--2------|  1x 
  |-----------------------------|     
  |-----------------------------|     
  |-----------------------------|     
 
 B       D 
   Portas fechadas 
 B         D                     B 
   Que, só abrem prá quem quer ver 
 D              E         G 
   Pulsos cortados, imitam a TV 
 B       D 
   Olho pra rua 
 B       D 
  Da mesma janela 
 B                 D          E      G 
  Que, costumávamos pensar onde ir 
 A     B     G         A     B       G 
  O tempo passou, e você não voltou 
 A     B    G          A     B       G 
  O tempo se foi, e você nao voltou 
 
  Refrão: 
 D      B            A          E G E G 
  Por que, você não quis, mais viver? 
 D     B              A         E G E G 
  Por que, você não quis, mais viver? 
 
 ( B  - D  - B  - D  - B  - D  - E  - G ) 
 
 B       D  
  Desci na contramão 
 B D       B  D   
  Te despistei 
 B          D         
  Estar perdido às vezes 
 E             G 
  É melhor que se encontrar 
 B           D      B    D 
  Jovem, alcoólatra bebe sem perceber 
 B   D              E             G 
  Passo-a-passo o caminho da destruição 
 A   B      G         A      B       G 
  O tempo passou, e você nao voltou 
 A   B       G        A     B        G 
  O tempo se foi, e você nao voltou 
 
  e|----------------------------------|             
  B|-6--3-----------------------------|            
  G|-------5--3-----------------------|         
  D|--------------5--3----------------|            
  A|--------------------5--3--5-------|           
  D|----------------------------------|       
 
  Refrão: 
  D      B            A           E G E G 
  Por que, você nao quis, mais viver? 
  D     B             A           E G E G 
  Por que, você nao quis, mais viver? 
  D     B     A       E G 
  Por quê? aaahhhhh


Enviada por Sem inscrição
Nº de acordes: 5