CPM 22

...É Isso

CPM 22

409 exibições
Tom B
Intro: B F# E

B              F#            E               
Lembro de coisas que eu falei naquela vez que eu te encontrei
B        F#              E
Só que você nao me entendeu
B             F#       E
o que eu queria te dizer é sobre o que eu sempre sonhei
B          F#           E
E não desisto por ninguém

(B C# D# E*)
Não pretendo arriscar ate quando aguentar
Pra vê ate onde vai dar
Não teria sentido viver sem tentar...
B  F#            E 
   viver sem tentar!
F#                    E*
Tanta coisas que eu preciso te dizer
F#                    E*
Tanta coisas que eu ainda vou fazer
F#                    E
Tanta coisas que eu nem sei por onde comecar
(repete INTRO)

SOLO 

2x

| 3x |
E-|-----------------------|---------------------|
B-|-----------------------|---------------------|
G-|-----------------------|---------------------|
D-|-4-4-4-4-4-4-----------|---------------------|
A-|-------------9-9-8-8-9-|-4-4-4-4-4-4-4h6-4-2-|
E-|-----------------------|---------------------|


E------------------------------------------------------------------------------12-14-/16-14
B----12--------------12-------------------------12----12/14-12-------12--12-14-------------
G-11----11-11/13-11-----11-11/13-9--11b-9-13-11----11----------11h13-----------------------
D------------------------------------------------------------------------------------------
A------------------------------------------------------------------------------------------
E------------------------------------------------------------------------------------------
|--varias vezes---|
E-------12-14-/16-14-------16b---------|
B-12-14--------------12-14-----14bp12--|
G--------------------------------------|
D--------------------------------------|
A--------------------------------------|
E--------------------------------------|

Acordes:
C# D# E* E F# B
E-----|-----|-----|-----|-----|-----|
B-----|-----|-----|-----|-----|-----|
G--6--|--8--|--9--|-----|-----|--4--|
D--6--|--8--|--9--|--2--|--4--|--4--|
A--4--|--6--|--7--|--2--|--4--|--2--|
E-----|-----|-----|--0--|--2--|-----|


Enviada por Sem inscrição
Nº de acordes: 5