CPM 22

Cidade Em Chamas

CPM 22

562 exibições
Intro gui 1 (D5)

gui 2 riff 1
e|-------------------------|
B|---------------8-8-7-7---|
G|---7-7-7-7-7-7-7-7-7-7---|
D|---x-x-x-x-x-x-x-x-x-x---|
A|---5-5-5-5-5-5-5-5-5-5---|
D|---0-0-0-0-0-0-0-0-0-0---|


obs: tokar todas as notas usando 5° e com a corda "E" desafinada 1 tom "D".

riff 2 (esse riff varía muito, tome cuidado com as viradas)

E|----------------------||---------- 2 vezes -----------|
B|----------------------||------------------------------|
G|----------------------||------------------------------|
D|--5-5-5-5-5-9-9-9-9-9-||-10-10-0-0-10-10-0-0-10-10-0--|
A|--5-5-5-5-5-9-9-9-9-9-||-10-10-0-0-10-10-0-0-10-10-0--|
D|--5-5-5-5-5-9-9-9-9-9-||-10-10-0-0-10-10-0-0-10-10-0--|

Que horas são? A cidade está em chamas!

Meu coração sangra.

E|----------------------||----------- 2 vezes -------------|
B|----------------------||---------------------------------|
G|----------------------||---------------------------------|
D|--5-5-5-5-5-9-9-9-9-9-||-5-5-5-10-10-10-5-5-5-10-10-5-10-|
A|--5-5-5-5-5-9-9-9-9-9-||-5-5-5-10-10-10-5-5-5-10-10-5-10-|
D|--5-5-5-5-5-9-9-9-9-9-||-5-5-5-10-10-10-5-5-5-10-10-5-10-|

Já faz 2 ou 3 dias,

Que me perdi dentro de mim...

E|----------------------||---------- 2 vezes -----------|
B|----------------------||------------------------------|
G|----------------------||------------------------------|
D|--5-5-5-5-5-9-9-9-9-9-||-10-10-0-0-10-10-0-0-10-10-0--|
A|--5-5-5-5-5-9-9-9-9-9-||-10-10-0-0-10-10-0-0-10-10-0--|
D|--5-5-5-5-5-9-9-9-9-9-||-10-10-0-0-10-10-0-0-10-10-0--|

Segui seus passos

Senti teus traços

Pra onde eles levam?

E|----------------------||----------- 2 vezes -------------|
B|----------------------||---------------------------------|
G|----------------------||---------------------------------|
D|--5-5-5-5-5-9-9-9-9-9-||-5-5-5-10-10-10-5-5-5-10-10-5-10-|
A|--5-5-5-5-5-9-9-9-9-9-||-5-5-5-10-10-10-5-5-5-10-10-5-10-|
D|--5-5-5-5-5-9-9-9-9-9-||-5-5-5-10-10-10-5-5-5-10-10-5-10-|

A cidade não tem fim

Olhos me cercam.

riff 3   D           D*

G|--7-7-7-7-7--------------|
D|--7-7-7-7-7-0-0-0-0-0-0--|
A|--5-5-5-5-5-0-0-0-0-0-0--|
D|------------0-0-0-0-0-0--|

Estou de joelhos vendo o céu desabar...

riff 4   G F# F E            D

D|-5-5-4-4-3-3-2-2--|   |-0-0-0-|
A|-5-5-4-4-3-3-2-2--|3x |-0-0-0-| caída
D|-5-5-4-4-3-3-2-2--|   |-0-0-0-|

Leio pares que tão no asfalto

Tantas promessas como se fosse fácil

Cumprir, Fugir dos desfarces.

REPETE TUDO DENOVO
 
riff 5   G F# F E 2x        D

D|-5-5-4-4-3-3-2-2--|   |-0-0-0-|       |
A|-5-5-4-4-3-3-2-2--|3x |-0-0-0-| caída | 2x
D|-5-5-4-4-3-3-2-2--|   |-0-0-0-|       |

2vezes

Leio pares que tao no asfalto

Tantas promessas como se fosse fácil

Cumprir, Fugir dos desfarces, dos desfarces!


riff 6 gui 2  4X G B E D E A B

D|--------------------------------------------------------|
A|--------------------------------------------------------|
D|---5-5-5-5-5-5-5-5-5-9-9-9-2-2-2-0-0-0-2-2-2-5-5-5-9-9--|

riff 6 gui 1  B E D E A B

D|-9-9-9-2-2-2-0-0-0-2-2-2-5-5-5-9-9--|      a gui 1 entra no fim 
A|-9-9-9-2-2-2-0-0-0-2-2-2-5-5-5-9-9--| <--   da gui 2 na 3° vez
D|-9-9-9-2-2-2-0-0-0-2-2-2-5-5-5-9-9--|

e continua assim...

D|-5-5-5-5-5-5-5-5-5-9-9-9-2-2-2-0-0-0-2-2-2-5-5-5-9-9--|   |--5---5--|
A|-5-5-5-5-5-5-5-5-5-9-9-9-2-2-2-0-0-0-2-2-2-5-5-5-9-9--|4x |--5---5--|
D|-5-5-5-5-5-5-5-5-5-9-9-9-2-2-2-0-0-0-2-2-2-5-5-5-9-9--|   |--5---5--|

Que horas são? Que horas são?

Milagres, nunca são ao acaso

Nada é por acaso, 

Ainda desde os teus traços..

(obs. qdo for tocar com distorção, tome cuidado com a microfonía
dada pelas cordas soltas!)


Enviada por Sem inscrição
Nº de acordes: 7