CPM 22

Argumento (Versão 1)

CPM 22

212 exibições
Versão 1
-======-

GUITAR(4X) esse solo é feito com se vaoce estivesse fazendo um E com se fosse um C
e||-------4--------4-------4------7---7------|
B||-----5---5----5-------5-----5----5---------|
G||---4----------------4---------------------|   
D||-----------4------0-----------------------|
A||-7-----------------------------------------
E||------------------------------------------|
GUITAR BASE(2X)
e||--------------------------------------------------------------|
B||--------------------------------------------------------------|
G||--------------------------------------------------------------|   
D||--------------------------------------------------------------|
A||-----2---2-2-4-4-6-6------------------------------------------|
E||-2/4---4-0-0-2-2-4-4------------------------------------------|
GUITAR SOLO(2X)
e||-7---7---7---7---7---7---7---7--------------------------------|
B||-5-X-5-X-5-X-5-X-5-X-5-X-5-X-5--------------------------------|
G||--------------------------------------------------------------|   
D||--------------------------------------------------------------|
A||--------------------------------------------------------------|
E||--------------------------------------------------------------|
GUITAR BASE(4X)
e||--------------------------------------------------------------|
B||--------------------------------------------------------------|
G||--------------------------------------------------------------|   
D||--------------------------------------------------------------|
A||-----2---2-2-4-4-6-6------------------------------------------|
E||-2/4---4-0-0-2-2-4-4------------------------------------------|
GUITAR BASE(4X)
e||--------------------------------------------------------------|
B||--------------------------------------------------------------|
G||--------------------------------------------------------------|   
D||---------6-6-4-4----------------------------------------------|
A||-----2---4-4-2-2-4-4------------------------------------------|
E||-2/4---4---------2-2------------------------------------------|
GUITAR BASE(4X)
e||--------------------------------------------------------------|
B||--------------------------------------------------------------|
G||--------------------------------------------------------------|   
D||--------------------------------------------------------------|
A||-2-2-2-2-4-4-4-4-6-6-6-6-7-7-7-7------------------------------|
E||-0-0-0-0-2-2-2-2-4-4-4-4-5-5-5-5------------------------------|
GUITAR BASE(4X)
e||--------------------------------------------------------------|
B||--------------------------------------------------------------|
G||--------------------------------------------------------------|   
D||-4-4-4-4-4-9-9-9-9-9------------------------------------------|
A||-2-2-2-2-2-7-7-7-7-7-6-6-6-6-6-4-4-4-4-4----------------------|
E||---------------------4-4-4-4-4-2-2-2-2-2----------------------|

GUITAR BASE(2X)
e||--------------------------------------------------------------|
B||--------------------------------------------------------------|
G||--------------------------------------------------------------|   
D||--------------------------------------------------------------|
A||-----2---2-2-4-4-6-6------------------------------------------|
E||-2/4---4-0-0-2-2-4-4------------------------------------------|

GUITAR SOLO(2X)
e||-7---7---7---7---7---7---7---7--------------------------------|
B||-5-X-5-X-5-X-5-X-5-X-5-X-5-X-5--------------------------------|
G||--------------------------------------------------------------|   
D||--------------------------------------------------------------|
A||--------------------------------------------------------------|
E||--------------------------------------------------------------|

GUITAR BASE(4X)
e||--------------------------------------------------------------|
B||--------------------------------------------------------------|
G||--------------------------------------------------------------|   
D||--------------------------------------------------------------|
A||-----2---2-2-4-4-6-6------------------------------------------|
E||-2/4---4-0-0-2-2-4-4------------------------------------------|

GUITAR BASE(4X)
e||--------------------------------------------------------------|
B||--------------------------------------------------------------|
G||--------------------------------------------------------------|   
D||---------6-6-4-4----------------------------------------------|
A||-----2---4-4-2-2-4-4------------------------------------------|
E||-2/4---4---------2-2------------------------------------------|

GUITAR BASE(8X)
e||--------------------------------------------------------------|
B||--------------------------------------------------------------|
G||--------------------------------------------------------------|   
D||--------------------------------------------------------------|
A||-2-2-2-2-4-4-4-4-6-6-6-6-7-7-7-7------------------------------|
E||-0-0-0-0-2-2-2-2-4-4-4-4-5-5-5-5------------------------------|

GUITAR BASE(2X)
e||--------------------------------------------------------------|
B||--------------------------------------------------------------|
G||-----9-------9--------9-----9---------------------------------|   
D||---9---9---9---9----9-----9-----------------------------------|
A||-7-------9----------------------------------------------------|
E||-----------------10-----9-------------------------------------|

GUITAR BASE(4X)
e||--------------------------------------------------------------|
B||--------------------------------------------------------------|
G||--------------------------------------------------------------|   
D||-4-4-4-4-4-9-9-9-9-9------------------------------------------|
A||-2-2-2-2-2-7-7-7-7-7-6-6-6-6-6-4-4-4-4-4----------------------|
E||---------------------4-4-4-4-4-2-2-2-2-2----------------------|

GUITAR BASE(2X)
e||--------------------------------------------------------------|
B||--------------------------------------------------------------|
G||--------------------------------------------------------------|   
D||--------------------------------------------------------------|
A||-----2---2-2-4-4-6-6------------------------------------------|
E||-2/4---4-0-0-2-2-4-4------------------------------------------|

GUITAR SOLO(1X)
e||-7---7---7---7---7---7---7---7--------------------------------|
B||-5-X-5-X-5-X-5-X-5-X-5-X-5-X-5--------------------------------|
G||--------------------------------------------------------------|   
D||--------------------------------------------------------------|
A||--------------------------------------------------------------|
E||--------------------------------------------------------------|

GUITAR SOLO(1X)
e||-5------------------------------------------------------------|
B||-5-X-5-X-5-X-5-X-5-X-5-X-5-X-5-5/7/5--------------------------|
G||--------------------------------------------------------------|   
D||--------------------------------------------------------------|
A||--------------------------------------------------------------|
E||--------------------------------------------------------------|


Enviada por Sem inscrição
Nº de acordes: 0