CPM 22

Amigos Perdidos

CPM 22

372 exibições
Tom: C
Intro: 
   guitarra 1
e||-------------------||
B||-13-12-13-12-13-12-||
G||-12-12-12-12-12-12-||
D||-10-10-10-10-10-10-||
A||-------------------||
E||-------------------||
 | guitarra 2
e||-----------------------------------------------------||
B||-----------------------------------------------------||
G||-----------------------------------------------------||   
D||-5---5---5----3---3---3---5---5---5----3---3---3---5-||
A||-3-5-3-5-3-5--1-3-1-3-1-3-3-5-3-5-3-5--1-3-1-3-1-3-3-||
E||---3---3---3----1---1---1---3---3---3----1---1---1---||


Verso: (C,G,A,F) (baixo)
o mundo estah mesmo louco
pra que te levar assim 
sem ao menos me dar um tempo 
terminar o que nao teve fim (riff1)
(distorcao)
nao da mais para aguentar 
aonde eh que issu ira chegar 
por causa de um erro de alguem
sem um porque
se eh que existe um por que (riff2)

riff1: 
e||----------------------------||
B||-13----13----13----13----13-||
G||----12----12----12----12----||
D||----------------------------||
A||----------------------------||
E||----------------------------||

riff2:           /riff 3
e||---------r----|----------------||
B||---------e----|----------------||
G||---------p----|----------------||
D||-----5-3-e-2--|--2---3---5---3-||
A||-3-3-----t----|----------------||
E||---------e----|----------------||

verso2: C,G,A,F
parar de me perguntar
o que acotneceu assim (riff3)
muitos passaram por isso
nao quero pensar assim
enquanto isso eu vejo aqui
desposiçao pra conseguir
por tudo que ele sonhou 
com um por que
se eh que existe um por que

refrao: C,G,F
e||------------------------||
B||------------------------||
G||-5-5--7-7-9-10-10-10-10-||
D||------------------------||
A||-3-3--5-5-7-8--8--8--8--||
E||------------------------||
 |
e||-----------------||
B||-----------------||
G||-5-5-------------||
D||-5-5-5-5-3-3-3-3-||
A||-3-3-5-5-3-3-3-3-||
E||-----3-3-1-1-1-1-||

se eh que exste um por que


Solo: D,A,G 

e||-----------------10-12^^-10----10-------10--|
B||--10-------10/12------------12----12-12-----|
G||--10^-9-7-----------------------------------|
D||--------------------------------------------|
A||--------------------------------------------|
E||--------------------------------------------|

    repete 4x        
e||-12-12-10-------|--12^^^^-12-10-12-10-9~---||
B||----------12-12-|--------------------------||
G||----------------|--------------------------||
D||----------------|--------------------------||
A||----------------|--------------------------||
E||----------------|--------------------------||

Final:
e||--------------||
B||--------------||
G||-9---9----5-5-||
D||----------5-5-||
A||-7---7----3-3-||
E||--------------||


Enviada por Sem inscrição
Nº de acordes: 1