CPM 22

1000 Motivos

CPM 22

429 exibições
Afinação E

E se o céu se partir
Será que algo vai mudar então
E se os prédios que me cercam
Fizerem da minha vida uma prisão

e|------------------------
B|------------------------
G|--6-6-6-6---7-7-7-7-----Esse Riff acompanha essa estrofe 
D|--7-7-7-7---7-7-7-7-----" E se o céu se Partir..."
A|--4-4-4-4---5-5-5-5-----
E|------------------------

E5         D5          D5/C#   
Se ao menos eu tiver você aqui
D5             E5
Perto de mim
                        D5
Pra cada dia que eu perdi 
                         A5       E5  D5
São mais de mil motivos pra lutar
                       D5/C#    D5-E5
Sei que é tarde pra te ver
                           A5   E5  D5
Pra compensar tudo que eu fiz
                    D5/C#          D5
Tudo porque hoje à noite não me serve a saudade

A5 D5/C# D5 x2

e|-------------------
B|-------------------
G|-6-6-6-6-6-6-6-6---
D|-7-7-7-7-7-7-7-7---
A|-------------------
E|-------------------
Esse Riffi Segura as x2 

Quando o inverno chega ao fim
Será que algo vai mudar então
Se as pessoas que me cercam
Fizerem da minha vida uma ilusão

e|------------------------
B|------------------------
G|--6-6-6-6---7-7-7-7-----Esse Riff Acompanha a estrofe
D|--7-7-7-7---7-7-7-7-----"Quando o inverno chega ao fim..."
A|--4-4-4-4---5-5-5-5-----
E|------------------------

E5         D5          D5/C#   
Se ao menos eu tiver você aqui
D5             E5
Perto de mim
                        D5
Pra cada dia que eu perdi 
                         A5       E5  D5
São mais de mil motivos pra lutar
                       D5/C#    D5-E5
Sei que é tarde pra te ver
                           A5   E5  D5
Pra compensar tudo que eu fiz
                    D5/C#          D5
Tudo porque hoje à noite não me serve a saudade

A D5/C# D - Base Solo
-
e|---------------------------------------------------------------------------------
B|-------------------------------------------------------10------------------------
G|--------9-------9--11-9------9-------9--11--9~ -7-6-7-----7-6-9-7-6--------------
D|--7-7-7---7-7-7---------7-7----7-7-7---------------------------------------------
A|---------------------------------------------------------------------------------
E|---------------------------------------------------------------------------------

e|---------------------------------------------------------------------------------
B|--------------------------------------------10-------10-------10--------10-------
G|--------9-------9--11-9------9--------9--11----11-11----11-11-----11-11----11-11-
D|--7-7-7---7-7-7---------7-7----7-7-7---------------------------------------------
A|---------------------------------------------------------------------------------
E|---------------------------------------------------------------------------------

e|---------------------------------------------------------------------------------
B|-10-------10--10----12-10---12-10---12-10---12-10---12-10----10-10-10-10-10------
G|----11-11---11--11--------9-------9-------9-------9-------9--9--9--9--9--9-------
D|---------------------------------------------------------------------------------
A|---------------------------------------------------------------------------------
E|---------------------------------------------------------------------------------

e|---------------------------------------------------------------------------12~---
B|----12-10---12-10---12-10---12-10---12-10----10-10-10-10-10-10-10-10-10-10-12~---
G|----------9-------9-------9-------9-------9--9--9--9--9--9--9--9--9--9--9--9~~---
D|---------------------------------------------------------------------------------
A|---------------------------------------------------------------------------------
E|---------------------------------------------------------------------------------

E5         D5          D5/C#   
Se ao menos eu tiver você aqui
D5             E5
Perto de mim
                        D5
Pra cada dia que eu perdi 
                         A5       E5  D5
São mais de mil motivos pra lutar
                       D5/C#    D5-E5
Sei que é tarde pra te ver 
                           A5   E5  D5
Pra compensar tudo que eu fiz
                    D5/C#          D5
Tudo porque hoje à noite não me serve a saudade

A5 D5/C# D5 x2 A

Não Me serve a saudade x2
e|-------------------
B|-------------------
G|-6-6-6-6-6-6-6-6--- x2 Finish em A
D|-7-7-7-7-7-7-7-7---
A|-------------------
E|-------------------


Enviada por jackraquel
Nº de acordes: 8