Sem imagem

Andante In G

Carulli

620 exibições
E||------------------|-------------0-2-|--3---3---2---2---|--0---0--------| 
B||--0---0---1---1---|--3---3---3------|------------------|----------3----| 
G||----0---0---0---0-|----0---0--------|----0---0---0---0-|----0---0------| 
D||------------------|-----------------|--2---2---0---0---|---------------| 
A||----------0---0---|--2---2---2------|------------------|--3---3---2----| 
E||--3---3-----------|-----------------|------------------|---------------| 
 
 
                                                                          
--------------0---|--------------3-2-|----0-------------|---------------| 
--1---1---1-----3-|--0---0---0-------|--------3---1---0-|--0-1-2-3------| 
--2---2---2-------|--0---0---0-------|------------------|----------2----| 
----0---0---0-----|----0---0---0-----|------------------|--0-------0----| 
------------------|------------------|--3---2---0-------|---------------| 
------------------|------------------|--------------3---|---------------| 
 
 
                                                                             
------2-------2---|----3-------------|------2-------2---|----3-------------| 
--------1-------1-|--------3---0---3-|--------1-------1-|--------3---0---3-| 
----5-------5-----|--0---0---0---0---|----5-------5-----|--0---0---0---0---| 
--0-------0-------|------------------|--0-------0-------|------------------| 
--5-------5-------|------------------|--5-------5-------|------------------| 
------------------|------------------|------------------|------------------| 
 
 
                                                                           
------0-----------|------2-------3---|----0-------------|---------------|| 
--------------3---|------------0-----|------1---0-3-1---|---------------|| 
----0-------0-----|----5-------------|--------2-------2-|----0----------|| 
------------------|--0-----0-2-----2-|----------0---0---|------0--------|| 
--3-----3-2-----2-|--5-----5-7-----7-|--3---------------|--------2------|| 
--8-----8-7-----7-|------------------|--8---------------|--3-------3----|| 



Enviada por Sem inscrição
Nº de acordes: 0