Sem imagem

Injustiça

Calibre 12

181 exibições
Intro: (2x)

          D     A   G B A
e---------------------------------------------
B---------------------------------------------
G-------7777----------------------------------
D-------7777--7777--5-9-7---------------------
A-------5555--7777--5-9-7---------------------
E-------------5555--3-7-5---------------------


1ªEstrofe: fazendo palm-mutted

e---------------------------------------------
B---------------------------------------------
G-------7777----------------------------------
D-------7777--7777--5-9-7---------------------
A-------5555--7777--5-9-7---------------------
E-------------5555--3-7-5---------------------
 Nada do que existe nessa porra vai sobrar...


Refrão:(2x)

         D     A     C
e---------------------------------------------
B---------------------------------------------
G-------7777--------5555----------------------
D-------7777--7777--5555----------------------
A-------5555--7777--3333----------------------
E-------------5555----------------------------
 Injustiça, injustiça, injustiça!!


Repete intro fazendo palm-mutted (2x)


2ªEstrofe: fazendo palm-mutted

e---------------------------------------------
B---------------------------------------------
G-------7777----------------------------------
D-------7777--7777--5-9-7---------------------
A-------5555--7777--5-9-7---------------------
E-------------5555--3-7-5---------------------
 Sua família não pode sustentar...


Repete Refrão (2x)


Enviada por Sem inscrição
Nº de acordes: 5