Bryan Adams

It's Only Love

Bryan Adams

833 exibições
Bryan Adams (with Tina Turner)
Tom: D5
Riff1 Intro/verse
e---------------------|--------------------------|-----------------------|-----------------------|
B--3------------------|--------------------------|-----------------------|-----------------------|
G--2------5-----------|--2------3----------------|-----------------------|-----------------------|
D--0------5-----------|--2------3---------3------|--3---3----3--3--------|--3---3----3--3--------|
A---------3-----------|--0------1-----3-5----5-3-|--3---3----3--3--------|--3---3----3--3--------|
E---------------------|--------------------------|--1---1--1-1--1--------|--1---1--1-1--1--------|
   D5     C5             A5     Bb5                 F5                      F5
[Intro]
D5   C5   A5   Bb5   F5   F5  (guitar only)
D5   C5   A5   Bb5   F5   F5  (&Solo1)
D5   C5   A5   Bb5   F5   F5
[Verse] (Bryan sings)
         D5            C5                      A5          Bb5
When the feelin__' is end__ed__    There ain't no_ use_ pretendin__'
         F5                      F5
Don't ya wor__ry__ - it's on_ly_ love__
          D5               C5                  A5            Bb5
When your world__ has been shattered_    Ain't nothin'_ else mat_ters__
         F5                   F5
It ain't o__ver - it's on_ly_ love__   And that's all - yea_eah
D5   C5   A5   Bb5   F5   F5  (&Solo2)
[Verse] (Tina sings)
          D5               C5                    A5               Bb5
When your heart__ has been bro_ken_        Hard_ words_ have been spo_ken_
         F5                         F5
It ain't ea__sy__ - but it's on_ly_ love__
            D5                 C5                      A5                Bb5
And if your life__ ain't worth li__vin_'    And you're rea__dy__ to give__ in_
          F5                       F5
Just remember__ - that it's on_ly_ love_______o_oo__ove
D5   C5   A5   Bb5   F5   F5  (&Solo)
D5   C5   A5   Bb5   F5   F5
[Bridge]
C5                            D5
  Don't you_ live without the agg____ra_vation__
Bb5                         G5
  Ya gotta wanna__ win__ -    ya gotta wanna__ win__
C5                         D5
  You keep lookin' back in des____pera_tion__
Bb5                           C5             [nc]	
  O__ver_  and_  o__ver_ and_  o__ver_ again___
D5   C5   A5   Bb5   F5   F5  (guitar only)
D5   C5   A5   Bb5   F5   F5  (&Solo)
 oh___ yeah____        it's only love baby  alright
D5   C5   A5   Bb5   F5   F5
 ooooh baby baby       it's only love love love
                           D5          C5                       A5          Bb5
When your world__ has been shattered_       Ain't nothin'_ else mat_ters__
         F5                   F5
It ain't o__ver - it's on_ly_ love__
        D5                 C5                      A5                Bb5
If your life__ ain't worth li__vin_'    And you're rea__dy__ to give__ in_
          F5                       F5
Just remember__ - that it's on_ly_ love___   yeah   that's all
D5   C5   A5   Bb5   F5   F5
D5   C5   A5   Bb5   F5   F5
D5   C5   A5   Bb5
              F5                         F5
Yeah It ain't ea__sy__ - but it's on_ly_ love__ - and that's all
Chords:
D5  xx023x / x577xx
C5  x355xx
A5  x022xx
Bb5 x133xx
F5  133xxx
G5  355xxx
Solo1 (Intro)
e------------|------------|------------|------------------------|------------------------|
B------------|------------|------------|-----------------13-15--|--15/-----13--13--------|
G------------|------------|------------|--------------14--------|------------------------|
D------------|------------|------------|------------------------|------------------------|
A------------|------------|------------|------------------------|------------------------|
E------------|------------|------------|------------------------|------------------------|
--------------------10--------------|------------------------------|-----------------------------|
------------------------13----------|------------------------------|-----------------------------|
----------10--12-14---------14--12--|--10--------------------------|----------------5--5--7p5----|
----10-12---------------------------|--------12-11-10--10----------|----------3-5-7-----------7--|
------------------------------------|------------------------12----|----3-4-5--------------------|
------------------------------------|------------------------------|-----------------------------|
--10-----------------------------10-|--13/-----17----15p13-17/---|--17--15--13--15h-17-15p13-10-13-13-10--|
------15----13-10-15----13-10-13----|----------------------------|----------------------------------------|
------------------------------------|----------------------------|----------------------------------------|
------------------------------------|----------------------------|----------------------------------------|
------------------------------------|----------------------------|----------------------------------------|
------------------------------------|----------------------------|----------------------------------------|
--------------------------------------------|--------------------|
--------15----15-13-----------13------------|--------------------|
--12-14----14-14----12p10-14------14p10-----|--------------------|
----------------------------------------12--|--12----------------|
--------------------------------------------|--------------------|
--------------------------------------------|--------------------|
Solo2
--------------------------------|--------------------------------------|----------------------------------------|
----10h13p10--------------------|----10h13p10--------------------------|----------------------------------------|
-------------13-12p10-12--------|-------------13-12p10-12p10-----------|--------------------10-10-----10-10-----|
--------------------------------|----------------------------12--12----|----10-12-10-12--12-------12--------12--|
--------------------------------|--------------------------------------|----------------------------------------|
--------------------------------|--------------------------------------|----------------------------------------|
--------------------10-----13-|--10--------------------|
--------------10~-------10----|------15------15--------|
--------10~-------------------|------------------------|
--10~-------------------------|------------------------|
------------------------------|------------------------|
------------------------------|------------------------|


Enviada por Sem inscrição
Nº de acordes: 6