Intro & 2:30 (guitar 1)
|----------------------------
|-3-------1------------------
|-2-------2-------4-------2--
|-0-------0-------4-------4--
|-0-------0------------------
|----------------------------
 (guitar two pick scrapes)            

|---------------------------------------------------------------
|---------------------------------------------------------------
|---------------------------------------------------------------
|-7--------x-x-x-x-7--------x-x-x-x-7--------x-x-x-x-7----------
|-5--------x-x-x-x-5--------x-x-x-x-5--------x-x-x-x-5----------
|---------------------------------------------------------------
| Guitar 1                 
|
|---------------------------------------------------------------
|---------------------------------------------------------------
|-7---10---12------7---10---7-------7---10---12------7---10---7-
|-x---x----x-------x---x----x-------x---x----x-------x---x----x-
|-5---8----10------5---8----5-------5---8----10------5---8----5-
|---------------------------------------------------------------
  Guitar 2             

  Pre-verse, Verse (PM)
|--------------------------------
|--------------------------------
|----------------5---------------
|-----5---5-6--5---5-7---5-----5-
|-5-8---5--------------8---5-8---
|--------------------------------

 Guitar 2 (pre-verse)
|-----------------8----------------
|------7------8-9---8-10----8------
|-7-10---7-10------------10---7-10-
|----------------------------------
|----------------------------------
|----------------------------------    

 Chorus
|---------------------------
|---------------------------
|-7-------5-------4-------7-
|-7-------5-------4-------7-
|-5-------3-------2-------5-
|---------------------------

 Solo rhythm
|-----------------------------------------------------------
|---------------------------------------------6--------6----
|-7------5------4------7------7-----10--5-----x--4-----x--7-
|-7------5------4------7------7-----x---5-----3--4-----3--7-
|-5------3------2------5------5-----8---3--------2--------5-
|-----------------------------------------------------------

 Solo (not complete) 
|-10---10--10--10--10---10--10--10--10--10--10--12---12--12--12--12---12--12-
|-13^-^13-^13-^13--13^-^13-^13-^13-^13-^13-^13--15^-^15-^15-^15--15^-^15-^15-
|----------------------------------------------------------------------------
|----------------------------------------------------------------------------
|----------------------------------------------------------------------------
|----------------------------------------------------------------------------

--12-13---13---------------15^-15^-15^--13-15-17-15p13-15----
-^15-16^-^16--16^-13h15-15--------------------------------15-
-------------------------------------------------------------
-------------------------------------------------------------
-------------------------------------------------------------
-------------------------------------------------------------

 3:20 & Outro (slide only on outro)
|--------------------------------
|--------------------------------
|-7-5-----5----------------------
|-----5-7----7--5-7-5------------
|---------------------8--7--(5/)-
|--------------------------------




Enviada por Sem inscrição
Nº de acordes: 0