Thin Lizzy

Bad Reputation

Thin Lizzy

66 exibições
Intro x 4
e|--------------------------------------------------------------------------|
B|--------------------------------------------------------------------------|
G|--------------------------------------------------------------------------|
D|---------------5----------------------------------------------------------|
A|---7-7-7-7-7-7---7--------------------------------------------------------|
E|--------------------------------------------------------------------------|

Chorus x4
e|--------------------------------------------------------------------------|
B|--------------------------------------------------------------------------|
G|----------------xxxx---xxxx---xxxxxx--------------------------------------|
D|----------------xxxx-9-xxxx-7-xxxxxx-5-4----------------------------------|
A|----7-7-7-5-7---xxxx-7-xxxx-5-xxxxxx-4-2----------------------------------|
E|----5-5-5-3-5-------------------------------------------------------------|

Verse x4
e|--------------------------------------------------------------------------|
B|--------------------------------------------------------------------------|
G|--------------------------------------------------------------------------|
D|-------------5---------------------------5--------------------------------|
A|-7---7-7-7-7---7---7-7-7-7-5-7---7-7-7-7---7-7-5-----5--------------------|
E|-------------------------------------------------7-7----------------------|


Enviada por Sem inscrição
Nº de acordes: 0