• Violão
  • Guitarra
  • Teclado
  • Cavaquinho
  • Contra-baixo
  • Bateria
  • Gaita
  • Guitar Pro
Guitarra 1

Intro
E||--------------------------------|--------------------------------|
B||------------3--------------1----|--------------------------------|
G||-------2--------------2---------|------------0-------------------|
D||--0--------------0--------------|-------2-------------------0----|
A||--------------------------------|--3-------------------2---------|
E||--------------------------------|-----------------3--------------|


                                                                 
-----------------1----0--------|--------------------------------|
------------3------------------|-----------------1----0----1----|
-------2-----------------------|------------0-------------------|
--0----------------------------|-------2------------------------|
-------------------------------|--3-----------------------------|
-------------------------------|--------------------------------|

-------3----1----3----0--------|
-------------------------------|
-------------------------------|
-------------------------------|
-------------------------------|
---3---------------------------|


Riff 1                                                                            
|--------------------------------------|----------------------------------||
|------6--5-------------6--5-----8--8--|--6--5--------------5-------------||
|*--7----------7--7--7--------5--------|--------5--5--5--7-----7--5------*||
|*-------------------------------------|---------------------------------*||
|--------------------------------------|----------------------------------||
|--------------------------------------|----------------------------------||


Base                                                              
------------------------------|------------------------------|
------------------------------|------------------------------|
------7------7------7------7--|------5------5----------------|
------7------7------7------7--|------5------5------5------5--|
--5-5-5--5-5-5--5-5-5--5-5-5--|--3-3-3--3-3-3------5------5--|
------------------------------|----------------3-3-3--3-3-3--|


                                                              
------------------------------|------------------------------|
------------------------------|------------------------------|
------7------7------7------7--|------5------5----------------|
------7------7------7------7--|------5------5------5------5--|
--5-5-5--5-5-5--5-5-5--5-5-5--|--3-3-3--3-3-3------5------5--|
------------------------------|----------------3-3-3--3-3-3--|


Refrão                                                              
------------------------------|------------------------------|
------------------------------|------------------------------|
------7------7----------------|------5------5----------------|
------7------7------3------3--|------5------5------5------5--|
--5-5-5--5-5-5------3------3--|--3-3-3--3-3-3------5------5--|
----------------1-1-1--1-1-1--|----------------3-3-3--3-3-3--|


                                                              
------------------------------|------------------------------|
------------------------------|------------------------------|
------7------7----------------|------5------5----------------|
------7------7------3------3--|------5------5------5------5--|
--5-5-5--5-5-5------3------3--|--3-3-3--3-3-3------5------5--|
----------------1-1-1--1-1-1--|----------------3-3-3--3-3-3--|


Riff 2                                                                            
|--------------------------------------|----------------------------------||
|------6--5-------------6--5-----8--8--|--6--5--------------5-------------||
|*--7----------7--7--7--------5--------|--------5--5--5--7-----7--5------*||
|*-------------------------------------|---------------------------------*||
|--------------------------------------|----------------------------------||
|--------------------------------------|----------------------------------||


Interludio                                                        4x                   -----------------------------------|--------------------||-------------------|
-----------------------------------|--------------------||-------------------|
*--7-7-7-7-7-7-7-7-7-7-7-7-7-7-7-7/|--5----------------*||--7----------------|
*--7-7-7-7-7-7-7-7-7-7-7-7-7-7-7-7/|--5----------------*||--7----------------|
---5-5-5-5-5-5-5-5-5-5-5-5-5-5-5-5/|--3-----------------||--5----------------|
-----------------------------------|--------------------||-------------------|


Riff 3                                                                       3x
|--------------------------------------|----------------------------------||
|------6--5-------------6--5-----8--8--|--6--5--------------5-------------||
|*--7----------7--7--7--------5--------|--------5--5--5--7-----7--5------*||
|*-------------------------------------|---------------------------------*||
|--------------------------------------|----------------------------------||
|--------------------------------------|----------------------------------||


Riff Final                                                                             --------------------------------------|--------------------------------------|
--------------------------------------|--6--5-----6--6--------6--5-----------|
--7--5--4-----------4--7--5--4--------|--------7--------7--7--------7--7--7--|
-----------7h-5--7--------------7--7--|--------------------------------------|
--------------------------------------|--------------------------------------|
--------------------------------------|--------------------------------------|


                                                                             
--------------------------------------|-------------------------------------|
--5--8--8--6--5-----6--5--------------|-----6--5-------------6--5-----8--8--|
-----------------7--------7--7--5--7--|--7----------7--7--7--------5--------|
--------------------------------------|-------------------------------------|
--------------------------------------|-------------------------------------|
--------------------------------------|-------------------------------------|


                                                       
---------------------------------|-------------------||
--6--5--------------5------------|-------------------||
--------5--5--5--7-----7--5------|--5----------------||
---------------------------------|-------------------||
---------------------------------|-------------------||
---------------------------------|-------------------||


Enviada por Sem inscrição
Nº de acordes: 0