Staind

Outside

Staind

64 exibições
Tuning: Down Half Step (Eb Ab Db Gb Bb Eb)

Guitar 1-Intro and Verse(Clean)
-0---0---0---0----------------------------------------------------------------
-0---0---0---0----------------------------------------------------------------
-9---7---0---0----------------------------------------------------------------
-9---7---5---7----------------------------------------------------------------
-7---5---5---7----------------------------------------------------------------
-0---0---3---5----------------------------------------------------------------
                                                                              
Guitar 2-Riff 1 Played During Verse(Clean)
------------------------------------------------------------------------------
-12----12----13-12----10---10---12-10---10------10----12---------------10-----
-------------------------9----9-------9------12----12----12------12-------12--
----14----14-------14---------------------------------------9/10----10--------
------------------------------------------------------------------------------
------------------------------------------------------------------------------
                                                                              
Guitar 1-Chorus(Distortion)
-0----3----2----0-------------------------------------------------------------
-0----3----3----2-------------------------------------------------------------
-1----0----2----2-------------------------------------------------------------
-2----0----0----2-------------------------------------------------------------
-2----0----0----0-------------------------------------------------------------
-0----3----0----0-------------------------------------------------------------
                                                                              
Guitar 2-Played During Chorus(Distortion)
------------------------------------------------------------------------------
------------------------------------------------------------------------------
------------------------------------------------------------------------------
-12-9-10(During 2nd Chord)---------9-10-9-7-5(During 4th Chord)---------------
------------------------------------------------------------------------------
------------------------------------------------------------------------------

Guitar 1-Distorted Verse Played Once
-0---0---0---0----------------------------------------------------------------
-0---0---0---0----------------------------------------------------------------
-9---7---0---0----------------------------------------------------------------
-9---7---5---7----------------------------------------------------------------
-7---5---5---7----------------------------------------------------------------
-0---0---3---5----------------------------------------------------------------

Guitar 2-Played During Distorted Verse
------------------------------------------------------------------------------
------------------------------------------------------------------------------
------------------------------------------------------------------------------
-12-9-10(During 3rd Chord)----------------------------------------------------
------------------------------------------------------------------------------
------------------------------------------------------------------------------

Guitar 1-Verse(Clean)
-0---0---0---0----------------------------------------------------------------
-0---0---0---0----------------------------------------------------------------
-9---7---0---0----------------------------------------------------------------
-9---7---5---7----------------------------------------------------------------
-7---5---5---7----------------------------------------------------------------
-0---0---3---5----------------------------------------------------------------
                                                                              
Guitar 2-Riff 1 Played During Verse(Clean)
------------------------------------------------------------------------------
-12----12----13-12----10---10---12-10---10------10----12---------------10-----
-------------------------9----9-------9------12----12----12------12-------12--
----14----14-------14---------------------------------------9/10----10--------
------------------------------------------------------------------------------
------------------------------------------------------------------------------

Guitar 1-Chorus(Distortion)
-0----3----2----0-------------------------------------------------------------
-0----3----3----2-------------------------------------------------------------
-1----0----2----2-------------------------------------------------------------
-2----0----0----2-------------------------------------------------------------
-2----0----0----0-------------------------------------------------------------
-0----3----0----0-------------------------------------------------------------
                                                                              
Guitar 2-Played During Chorus(Distortion)
------------------------------------------------------------------------------
------------------------------------------------------------------------------
------------------------------------------------------------------------------
-12-9-10(During 2nd Chord)---------9-10-9-7-5(During 4th Chord)---------------
------------------------------------------------------------------------------
------------------------------------------------------------------------------

Guitar 1-Verse Played 4 Times w/ Distortion
-0---0---0---0----------------------------------------------------------------
-0---0---0---0----------------------------------------------------------------
-9---7---0---0----------------------------------------------------------------
-9---7---5---7----------------------------------------------------------------
-7---5---5---7----------------------------------------------------------------
-0---0---3---5----------------------------------------------------------------

Guitar 2-Played During Distorted Verse(Distortion)
------------------------------------------------------------------------------
------------------------------------------------------------------------------
------------------------------------------------------------------------------
-12-9-10(During 3rd Chord)---------9-10-9-7-5(During 4th Chord)---------------
------------------------------------------------------------------------------
------------------------------------------------------------------------------
                                                                              
Guitar 3-Solo Played During Distorted Verse(Distortion)
------------------------------------------------------------------------------
------------------------------------------------------------------------------
-16-13-11-13-14-------11-9----9-9----11-9----9------------------------------
----------------12-12------12-----12------12--------------------------------
------------------------------------------------------------------------------
------------------------------------------------------------------------------

Guitar 1-Verse Played Once(Clean)
-0---0---0---0----------------------------------------------------------------
-0---0---0---0----------------------------------------------------------------
-9---7---0---0----------------------------------------------------------------
-9---7---5---7----------------------------------------------------------------
-7---5---5---7----------------------------------------------------------------
-0---0---3---5----------------------------------------------------------------
                                                                              
Guitar 2-Riff 1 Played During Clean Verse(Clean)
------------------------------------------------------------------------------
-12----12----13-12----10---10---12-10---10------10----12---------------10-----
-------------------------9----9-------9------12----12----12------12-------12--
----14----14-------14---------------------------------------9/10----10--------
------------------------------------------------------------------------------
------------------------------------------------------------------------------

Guitar 1-Chorus(Clean)
-0----3----2----0-------------------------------------------------------------
-0----3----3----2-------------------------------------------------------------
-1----0----2----2-------------------------------------------------------------
-2----0----0----2-------------------------------------------------------------
-2----0----0----0-------------------------------------------------------------
-0----3----0----0-------------------------------------------------------------


Enviada por Sem inscrição
Nº de acordes: 5