Staind

Not Again

Staind

18 exibições
  • Violão
  • Guitarra
  • Teclado
  • Cavaquinho
  • Contra-baixo
  • Bateria
  • Gaita
  • Guitar Pro
( - arppeggio
. - PM
/ - slide up
\ - slide down
b - full bend
b.5 - half step bend
pb.5 - pre half step bend
p - pull off
h - hammer on

Tuning: Drop Db

Intro (clean)
---------------------|
---------------------|
-----------0---(0-0--|
---0--0--0--0--(0--0-|
-0--0--0-1---1-(1----|
-0---0---------------|

Intro (dist.)
-------------------|
-------------------|
-------------------|
-10-10-10-10-8-5-0-|
-10-10-10-10-8-5-0-|
-10-10-10-10-8-5-0-|

----------------------------------------|
----------------------------------------|
----------------------------------------|
---0---------0-----0---0---------0---10-|
---0-1-1-1-1-0-1---0---0-1-1-1-1-0-1-10-|
---0-1-1-1-1-0-1---0---0-1-1-1-1-0-1-10-|
     . . . .   .         . . . .   .

-------------------------------------|
-------------------------------------|
-------------------------------------|
---10------10---10-10-10-10-10-8-5-8-|
-----10--10--10-10-10-10-10-10-8-5-8-|
-------10--------9-10-10-10-10-8-5-8-|

Chorus
----------------------------|
----------------------------|
----------------------------|
---8-8-10-9---------------0-|
---8-8-10-9---9-9-9-9-9-9-0-|
---8-8-10-9---9-9-9-9-9-9-0-|
              . . . . . .

-----------------------------------------|
-----------------------------------------|
-----------------------------------------|
---0-----0-----0---0-----0-<2.8>-<2.8>-8-|
---0-0-0-0-0-0-0---0-0-0-0-------------8-|
---0-0-0-0-0-0-0---0-0-0-0-------------8-|
     . .   . .       . .

----------------------------|
----------------------------|
----------------------------|
---8-8-10-9-----------------|
---8-8-10-9---9-9-9-9-9-9-9-|
---8-8-10-9---9-9-9-9-9-9-9-|
              . . . . . . .

---------|---------|
---------|---------|
---------|---------|
-0-------|---------|
-0-------|---------|
-0-------|---------|

Solo 1
-------------------|--------------------|
---6-6-5-----------|---6-6-5------------|
-/7-7---7-7/14---\-|-/7-7---7-5-7-5---\-|
-------------------|--------------------|
-------------------|--------------------|
-------------------|--------------------|

--------------------------|-------------------------------|
-----6-6-5----------------|-13b-13-10---------------------|
---/7-7---7-7/14-12-14b.5-|----------12p10--12b-12-10--10-|
--------------------------|---------------12---------12---|
--------------------------|-------------------------------|
--------------------------|-------------------------------|

---------------------------|
---------------------------|
-10-10-10-10p9--9----------|
--------------12-10--10/12-|
-------------------12------|
---------------------------|

----------------------------------|
---10--13--13-13b-13-11-10-13---/-|
-10--10--10-----------------------|
----------------------------------|
----------------------------------|
----------------------------------|

   hold bend
---15b-15-15-15r-13-12-13p12----------------|
----------------------------15p13-13/15---\-|
--------------------------------------------|
--------------------------------------------|
--------------------------------------------|
--------------------------------------------|

---12b.5-12-15-13-15-15-15/17\------|
------------------------------17h18-|
------------------------------------|
------------------------------------|
------------------------------------|
------------------------------------|
sorry, I couldn't figure out the fast part, even slowed down. :(

Solo 2
 hold bend
-------------------------------|
-8b.5-8-8-8-8r\-8b.5-8-8-8-8r\-|
-8b---8-8-8-8r\-8b---8-8-8-8r\-|
-------------------------------|
-------------------------------|
-------------------------------|

--------------------------------------------|
---------------------------13p11p10---------|
-------------12p10p9---------------13p11p10-|
-10p8p7-------------12p10p9-----------------|
-------10p8p7-------------------------------|
--------------------------------------------|

-15p13p12--------17p15p13------|
---------15p13p12--------17p16-|
-------------------------------|
-------------------------------|
-------------------------------|
-------------------------------|

-20p18p17--------------17h18h20-|
---------20p18p17h18h20---------|
--------------------------------|
--------------------------------|
--------------------------------|
--------------------------------|

 hold bend
-20b-20-20-20-20r-17-------------|
--------------------18-17-18-18b-|
---------------------------------|
---------------------------------|
---------------------------------|
---------------------------------|

-------------------15b-15-13-12-13--12---|
-17b.5-pb.517-17-15---------------15--13-|
-----------------------------------------|
-----------------------------------------|
-----------------------------------------|
-----------------------------------------|


Enviada por Sem inscrição
Nº de acordes: 0