Staind

For You

Staind

12 exibições
Tuning: ½ step EbBbGbDbAbEb
* = mute
/ = slide
 = single distorted note

Main (Verse)- w/ heavy ass distortion and another effect?            

E|--------------------------------------------------------------------|
B|--------------------------------------------------------------------|
G|--------------------------------------------------------------------|
D|--2/4---4---4---2/4---4---2/4---4---4---4---2/4---4-----------------|
A|--2/4---4---4---2/4---4---2/4---4---4---4---2/4---4-----------------|
E|--0/2---2---2---0/2---2---0/2---2---2---2---0/2---4-----------------|
     *   *   *     *   *     *   *   *   *     *   *        

E|--------------------------------------------------------------------|
B|--------------------------------------------------------------------|
G|--------------------------------------------------------------------|
D|--2/4---4---4---2/4---4---2/4---4---4---5/4---4---4------|
A|--2/4---4---4---2/4---4---2/4---4---4---5/4---4---4------|
E|--0/2---2---2---0/2---2---0/2---2---2---3/2---4---4------|
     *   *   *     *   *     *   *   *     *   *   *   
The verse above is probably not tabbed perfect but it is easy to play once you get the 
pattern and basic idea.

Chorus

guitar 1 - w/distortion
E|------------------------------------------------------------------| 
B|------------------------------------------------------------------|
G|-(2)--------------7-----------------------------------------------|
D|--4---------------7-------------7--------------2------------------|
A|--4---------------5-------------7--------------2------------------|
E|--2-----------------------------5--------------0------------------|      x4
..find the pattern yourself  (not hard)

guitar2-  w/distortion

E|---------------------------------------------------------------------|
B|---------------------------------------------------------------------|
G|--11-----------/9-------------/14------------/13---------------------|
D|---x------------x---------------x--------------x---------------------|
A|---8-----------/7-------------/12------------/11---------------------|
E|---------------------------------------------------------------------|      x4
 .. find the pattern yourself  (not hard)

after the breakdown the second guitar changes progression during the chorus for the 
remainder of the song.  On the 3rd progression of the 4 during the chorus it goes like 
this:
 
guitar 2

E|------------------------------------------------------------------|
B|------------------------------------------------------------------|
G|--11-----------/9--------------/6-------------/4------------------|
D|---x------------x---------------x--------------x------------------|
A|---9-----------/7--------------/4-------------/2------------------|
E|------------------------------------------------------------------| 


Breakdown

D|------------------------------------|
A|------------------------------------|
E|--2----2----2----2----2----2--------|   x6
   *    *    *    *    *    *               

D|--4---------------------------------|
A|--4---------------------------------|
E|--2----2----2----2----2----2--------|   x2
       *    *    *    *    *    

D|--4----4---------------------------|
A|--4----4---------------------------|
E|--2----2----2----2----2----2-------|   x2
           *    *    *    *   

w/ distortion

D|-----------------------------------------|
A|--2--h4--2--h4--2--h4--2--h4--2--h4---2--|
E|--0--h2--0--h2--0--h2--0--h2--0--h2---2--|  x4
      
back to chorus 2x
 
repeat verse pattern ends on off beat. 

BY TIAGO AUGUSTO


Enviada por tinho
Nº de acordes: 0