Staind

Cant Believe

Staind

15 exibições
Intro (after drums)
e|--------------------------------------------------------
B|--------------------------------------------------------
G|--------------------------------------------------------
D|-4-(4-4-4-4)-4--X--4-7-7--------------------------------
A|-2-(2-2-2-2)-2--X--5-5-5--------------------------------
D|-2-(2-2-2-2)-2--X--5-5-5--------------------------------
       {             }     ^
          ^    ^          ^
     palm mute    rest 1 beat

part before verse:
e|--------------------------------------------------------
B|-7--------5---7-8-10------------------------------------
G|---7-4-7---4--------------------------------------------
D|--------------------------------------------------------
A|--------------------------------------------------------
D|-------------------------------------------------------

Verse:
e|--------------------------------------------------------
B|--------------------------------------------------------
G|--------------------------------------------------------
D|-4-(4-4-4-4)-4--X--4-7-7--------------------------------
A|-2-(2-2-2-2)-2--X--5-5-5--------------------------------
D|-2-(2-2-2-2)-2--X--5-5-5--------------------------------
       {             }     ^
          ^    ^          ^
     palm mute    rest 1 beat


Chorus:
e|--------------------------------------------------------
B|--------------------------------------------------------
G|--------------------------------------------------------
D|-4-4-4-4/-7-7-7-7---------------------------------------
A|-2-2-2-2/-5-5-5-5---------------------------------------
D|-2-2-2-2/-5-5-5-5---------------------------------------

Weird part after first chorus:
e|--------------------------------------------------------
B|--------------------------------------------------------
G|-4-7-4-7-4-4--------------------------------------------
D|--------------------------------------------------------
A|--------------------------------------------------------
D|--------------------------------------------------------

End on this chord and let it ring:
e|---------------------------------------------------------
B|---------------------------------------------------------
G|---------------------------------------------------------
D|-4-------------------------------------------------------
A|-4-------------------------------------------------------
D|---------------------------------------------------------


Enviada por tinho
Nº de acordes: 0