• Violão
  • Guitarra
  • Teclado
  • Cavaquinho
  • Contra-baixo
  • Bateria
  • Gaita
  • Guitar Pro
D                        F#m              C#m           E
e |-------------10---------|----------------|---9---------|---------------|
B |---------------10-------|--------10p9-10-|---9---------|---------10-9--|
G |----------11------11----|-----11---------|-------------|------9--9--9--|
D |-------12------------12-|---11-----------|-------------|----9----------|
A |----12------------------|-9--------------|-------------|--7------------|
E |-10---------------------|----------------|-9---9-12-9--|---------------|

    D                    F#m               C#m            E
e |----------10-------|-----------------|---9----------|----------------|x2
B |------------10-----|---------10p9-10-|---9----------|--------10-9-10-|
G |--------11----11---|------11---------|--------------|-----9--9--9----|
D |------12--------12-|---11------------|--------------|---9------------|
A |---12--------------|-9---------------|--------------|-7--------------|
E |-10----------------|-----------------|-9---9-12p9-9-|----------------|

    D                        F#m  C#m   E
e |-------------10----------|-9--|-9--|-7--|
B |---------------10--------|-10-|-9--|-9--|
G |----------11------11-----|-11-|-10-|-9--|
D |-------12------------12--|-11-|-11-|-9--|
A |----12-------------------|-9--|-11-|-7--|
E |-10----------------------|----|-9--|----|


                                  1    2
                                 l¯¯¯ l¯¯¯¯
e |------------------------------|----|----|
B |--------7-9-9b-9Br-7-9--9Br-7-|----|-9--|
G |--7--7------------------------|-9--|----|
D |------------------------------|----|----|
A |------------------------------|----|----|
E |------------------------------|----|----|

It's these chords the hole song
    D    F#m   C#m   E
e |-10--|-9--|-9--|-7--|
B |-10--|-10-|-9--|-9--|
G |-11--|-11-|-9--|-9--|
D |-12--|-11-|-11-|-9--|
A |-12--|-9--|-11-|-7--|
E |-10--|----|-9--|----|


Enviada por Sem inscrição
Nº de acordes: 4