Skillet

Hero

Skillet

555 exibições
(intro)

E|---------------------------------------------------------------------------------------|
B|--------------------------------------10-10--------------------------------------------|
G|--------9—9—11—11—12—12—11—11---7-7----------12-12-11-11-------------------------------|
D|---------------------------------------------------------------------------------------|
A|---------------------------------------------------------------------------------------|
E|---------------------------------------------------------------------------------------|



E|--8------8-----8------8----------------------------------------------------------------|
B|-----12--- 12----12--------------------------------------------------------------------|
G|---------—-—--—--—--—--—--—------------------------------------------------------------|
D|---------------------------------------------------------------------------------------|
A|---------------------------------------------------------------------------------------|
E|---------------------------------------------------------------------------------------|


(primeira parte cantada)

E|---------------------------------------------------------------------------------------|
B|---------------------------------------------------------------------------------------|
G|---------—-—--—--—--—--—--—------------------------------------------------------------|
D|---------------------------------------------------------------------------------------|
A|--2---2------2---2----3--------2--|---5--5-4--2--0--5--4---5---------------------------|
E|--2---2------2---2---------------------------------------------------------------------|



E|---------------------------------------------------------------------------------------|
B|---------------------------------------------------------------------------------------|
G|---------—-—--—--—--—--—--—------------------------------------------------------------|
D|---------------------------------------------------------------------------------------|
A|--2---2------2---2----3--------2--|---5--5-4--2--0--3--2---5---------------------------|
E|--2---2------2---2---------------------------------------------------------------------|



E|---------------------------------------------------------------------------------------|
B|---------------------------------------------------------------------------------------|
G|---------—-—--—--—--—--—--—------------------------------------------------------------|
D|---------------------------------------------------------------------------------------|
A|--2---2------2---2----3--------2--|---5--5-4-5-|--2---2-----2---2----3--------2--------|
E|--2---2------2---2-----------------------------|--2---2-----2---2----------------------|



D|---------------------------------------------------------------------------------------|
A|-------------------------3----5--2-----------------------------------------------------|
E|----5—5-4-2—0--------------------------------------------------------------------------|


(pré refrão)

E|---------------------------------------------------------------------------------------|
B|---------------------------------------------------------------------------------------|
G|---------—-—--—--—--—--—--—------------------------------------------------------------|
D|----7---7------7----7----------------7--7---------10-----------------------------------|
A|----7---7------7----7----------------7--7---------10-----------------------------------|
E|----7---7------7----7----------------7-------------------------------------------------|



E|---------------------------------------------------------------------------------------|
B|---------------------------------------------------------------------------------------|
G|---------—-—--—--—--—--—--—------------------------------------------------------------|
D|----10---10------9----10------7---7---------10-----------------------------------------|
A|----10---10------9----10------7---7---------10-----------------------------------------|
E|----10---10------9----10------7---7---------10-----------------------------------------|



E|---------------------------------------------------------------------------------------|
B|---------------------------------------------------------------------------------------|
G|---------—-—--—--—--—--—--—------------------------------------------------------------|
D|----2---2------2-----------------------------------------------------------------------|
A|----2---2------2------3-----2----------------------------------------------------------|
E|----2---2------2-----------------------------------------------------------------------|

(obs: essa ultima tablatura é feita duas vezes e depois repete toda as tablaturas do pré refrão)


E|---------------------------------------------------------------------------------------|
B|---------------------------------------------------------------------------------------|
G|---------—-—--—--—--—-----—------------------------------------------------------------|
D|---------------------------------------------------------------------------------------|
A|----2---2------2-----------------------------------------------------------------------|
E|----2---2------2-----------------------------------------------------------------------|


(refrão)
(uma guitarra faz a mesma tablatura da introdução e outra faz a base)


Enviada por Sem inscrição
Nº de acordes: 0