Scalene

Surreal

Scalene

523 exibições
Capotraste 1ª casa

Tom: C

      C                        Am
E|---------------------------------------------------------
B|--------7-----7----7-----7-------3-----3-----3-----3----
G|------x-----x-----x-----x-------x-----x-----x-----x------
D|----7-----7-----7-----7-------4-----4-----4-----4--------
A|--5-----5-----5-----5-------2-----2-----2-----2----------
E|---------------------------------------------------------
     G                         Bm
-------------------------------------------------------------------|
------------2-----2-----2----2-------5--------5-------5--------5----|
----------x-----x-----x----x-------x--------x-------x--------x------|
--------2-----2-----2----2-------6--------6-------6--------6--------|
------0-----0-----0----0-------4--------4-------4--------4----------|
-------------------------------------------------------------------|

C              Am                 G
Nada era certo, mas parecia tão normal
              Bm
Me acostumei com a incerteza ideal
C                     Am              G
Nos faz querer o tudo, o pouco não é opção
              Bm                      C  D#  Em
Será surreal, ter o mundo em minhas mãos?
C                 Am                   G
Tinha ao meu lado, quem soubesse me ajudar
            Bm
E acreditei no que iria me tornar
C                  Am                G
O pouco era simples, o tudo foi a opção
             Bm                       C  D#
Será irreal, ter o mundo em minhas mãos?

G     Em
Longe, alto
Bm    Am        D
Cabe a cada um de nós dizer
G    Em
Onde, quando
Bm    D
Cabe a cada um de nós saber.

C            Am                 G
A felicidade, acordamos só pra ter
               Bm
E compartilhar com aqueles que nos fazem
C                        Am                      G
Sentir que estamos perto, saber que o longe é opção
            Bm                         C  D#
Será ideal, ter o mundo em minhas mãos.

(Refrão)

Passagem: E5  D5  C#5  B5

E5   D5      C#5 B5
Seja qual for o final
Faça ser algo ideal
Seja qual for o final
Faça ser algo surreal

( C  Am  G  Bm )


Enviada por Sem inscrição
Nº de acordes: 11