Rush

Limelight

Rush

494 exibições
Intro: 
------

|----------------------|
|----------------------|
|-----------4---4---2--|
|---------2-4---4---2--|
|-----0-4---2---2---0--|
|-0-4-------------4----|
[repeat 3 times, with different phrasings]


Transition from Intro:
|-----------|
|-----------|
|-----------|
|---------2-|
|-----0-4---|
|-0-4-------|


  B   A    E [no 3rd]
|------------------------|
|------------------------|
|-4-4-2-2----------------|
|-4-4-2-2--2-------------| 
|-2-2-0-0--2------0-4-0--|
|----------0--2-4--------|
[six times]


Verse:
------

------0---0------------------0--------------0-------0----------------
----------0------------------0------------0-0------------------------
----4---4--------------------4------------4-------4---------6-6------
--4---------6--6--4-4--4--2-----4-4-2---2-------4-----4---6-4-4-4-4--
2-----------6--6--4-4--4--2-----4-4-2---2-----2---------6-6-6-6-4-4--
------------4--4--2-2--2--0-----2-2-0---0-----------------4-4-4-2-2--


Riff between verses:
|------------------------|
|------------------------|
|----4-----2-------------|
|--4-----2---2-----------|
|2-----0-----2-----0-4-0-|
|------------0-2-4-------|
[repeat two times]


Chorus:
-------
measure 3/4
Chorus arpeggiation:
|----------------------------------|-----------|
|-------0----------0----------0----|-------0---|
|---------6----------3-------------|---------6-|
|-----4----------2----------4------|-----4-----|
|---6----------2----------4--------|---6-------|
|-4----------0----------2----------|-4---------|
 [repeat twice]

Then the straight rhythm ("Those who wish to be..")
measure 4/4:

---------------------------------------------------------------------
---------------------------------------------------------------------
---------------------------------------------------------------------
2-2-2-2-2-2-2-2-4-4-4-4-4-4-4-4-6-6-6-6-6-6-6-6----------------------
2-2-2-2-2-2-2-2-4-4-4-4-4-4-4-4-6-6-6-6-6-6-6-6----------------------
0-0-0-0-0-0-0-0-2-2-2-2-2-2-2-2-4-4-4-4-4-4-4-4----------------------

----0-------0-------0---------0-------4-----4------------------------
----0-------0-------0---------0-------4-----4------------------------
----1-------1-------3---------3-------6-----6------------------------
2-2-2-2-2-2-2-2-4-4-4-4-4-4-4-4-4-6-6-6-6-6-6-6----------------------
2-2-2-2-2-2-2-2-4-4-4-4-4-4-4-4-4-6-6-6-6-6-6-6----------------------
0-0-0-0-0-0-0-0-2-2-2-2-2-2-2-2-2-4-4-4-4-4-4-4----------------------

Fill up one measure with E and one with F#7add4 in 4/4 rhytm,
go back once to the arpeggio. Then do the second riff of the intro twice and
go back to the verses etc. etc.

Solo:
-----

Right before the solo in the chorus, instead of returning to the chorus
arpeggiations, play the G# sus 4 for one more measure, then go ahead with:

-_-------------------------------------------------------------------
2-0-!-12--(9)-------------------------------------------------------
-----------------------------------------X-11------------------------
---------------------------------------------------------------------
------------4--4--6--2--4--2------------------------------------
-----------------------------------2--4-----------------------------
      NH

---12--14--------14-----------11-------14-------11-------14---------
12------------12-----11-14--------12-11----11-12----12-11------------
-----------11--------------13----------------------------------------
---------------------------------------------------------------------
---------------------------------------------------------------------
---------------------------------------------------------------------

------11-------------------------------------------------------------
11-12----14----11--------_--_--_-------------------------------------
------------13----11---11-13-11-13--1-------------------------------
---------------------------------------------------------------------
---------------------------------------------------------------------
---------------------------------------------------------------------

              _                _
16--(19)!--14-16--(18)-!--16-14-16-18-16--16-18-16--18-19-16------
---------------------------------------------------------------------
---------------------------------------------------------------------
---------------------------------------------------------------------
---------------------------------------------------------------------
---------------------------------------------------------------------

18-19-18--19-21-21--(23)-!------------------------------------------
---------------------------------------------------------------------
---------------------------------------------------------------------
---------------------------------------------------------------------
---------------------------------------------------------------------
---------------------------------------------------------------------


Enviada por Sem inscrição
Nº de acordes: 4