Intro: 
E|---------------------------------------------------------------------
B|---------10------10----10-----10-------------------------------------
G|---------------------------------------9----9/10--10-----10-----10---
D|---------------------------------------------------------------------
A|---8--------8------8------8------------------------------------------
E|---------------------------------------8----8/10-----10-----10-----10

E|---------------------------------------------------------------------
B|-------------------------------------------------8p6---8p6-----------
G|--10/9--------10------10-----10------8---9/10-----------------------
D|---------------------------------------------------------------------
A|-----------8-------8------8------8----------------------------------
E|--------8--------------------------------8/10------------------------

Verso 1:
E|---------------------------------------------------------------------
B|---------10------10----10-----10-------------------------------------
G|----------------------------------9---9/10--10-----10-----10----10/9-
D|---------------------------------------------------------------------
A|---8--------8------8------8------------------------------------------
E|----------------------------------8---8/10-----10-----10-----10-----8

E|---------------------------8----------------------------------
B|---------10------10----10-----8—8/10-------10-----------------
G|----------------------------------------------10-10-9---------
D|--------------------------------------------------------------
A|---8--------8------8------------------------------------------
E|------------------------------8—8/10-10-10--------------------

Refrão:
E|--5-5-5-5-5-5-5-5-5-------------------------------------------
B|--6-6-6-6-6-6-6-6-6----5-----6-6-6-6-6-6-6-6-6---5------------
G|--5-5-5-5-5-5-5-5-5----5-----7-7-7-7-7-7-7-7-7---5------------
D|--7-7-7-7-7-7-7-7-7----5-----7-7-7-7-7-7-7-7-7---5------------
A|--8-8-8-8-8-8-8-8-8----3--5--5-5-5-5-5-5-5-5-5---3------------
E|--------------------------------------------------------------

E|--5-5-5-5-5-5-5-5-5----------------------------------------
B|--6-6-6-6-6-6-6-6-6----5-----6-6-6-6-6-6-6-6-6-------------
G|--5-5-5-5-5-5-5-5-5----5-----7-7-7-7-7-7-7-7-7-------------
D|--7-7-7-7-7-7-7-7-7----5-----7-7-7-7-7-7-7-7-7-------------
A|--8-8-8-8-8-8-8-8-8----3--5--5-5-5-5-5-5-5-5-5---7---------
E|-------------------------------------------------8---------

Verso 2:
E|---------------------------------------------------------------------
B|---------10------10----10-----10-------------------------------------
G|----------------------------------9---9/10--10-----10-----10----10/9-
D|---------------------------------------------------------------------
A|---8--------8------8------8------------------------------------------
E|----------------------------------8---8/10-----10-----10-----10-----8

E|------------------------------------8---------------13-12-10--------
B|---------10------10----10-----10------8-8/10--10--------------13----
G|---------------------------------------------------------------0----
D|--------------------------------------------------------------------
A|---8--------8------8------8-----------------------------------------
E|----------------------------------------8/10--10-10-----------10/8—

(Refrão)

Solo:
E|--------------------------------------------------------
B|--10----------10/8-8--------8/10---10-10/12-12/13---13--
G|--------------------------------------------------------
D|--------------------------------------------------------
A|--------------------------------------------------------
E|--------------------------------------------------------

Verso 3:
E|---------------------------------------------------------------------
B|----------10-----10-----10----10-------------------------------------
G|---------------------------------9-9/10--10----10----10--12/10-12/10-
D|---------------------------------------------------------------------
A|---8---------8-------8-----8-----------------------------------------
E|---------------------------------8-8/10-----10----10----------------8

E|-----------------------------------8---------------------------------
B|---------10------10----10-----10-----8-8—-8/10-10-12-13-12-10--------
G|---------------------------------------------------------------------
D|---------------------------------------------------------------------
A|---8--------8------8------8------------------------------------------
E|---------------------------------------—--8/10-------------10--10----

(Refrão)

Verso 4:
E|---------------------------------------------------------------------
B|---------10------10----10-----10-------------------------------------
G|----------------------------------9---9/10--10-----10-----10----10/9-
D|---------------------------------------------------------------------
A|---8--------8------8------8------------------------------------------
E|----------------------------------8---8/10-----10-----10-----10-----8

E|--------------------------8--------------12-10-----------
B|---------10----10---10-------8—8/10--10--------13--10----
G|---------------------------------------------------------
D|---------------------------------------------------------
A|---8--------8-----8----8---------------------------------
E|-----------------------------8—8/10--10------------10----

(Refrão)

Solo:
E|---------------------------------------------------------------------
B|--15-15/13-13/10—10/8-8-13/10--15-----17-13--10-10-13/8-8-13/10------
G|---------------------------------------------------------------------
D|---------------------------------------------------------------------
A|---------------------------------------------------------------------
E|---------------------------------------------------------------------

E|-----------------------------
B|----15/17—17/18--------------
G|-----------------------------
D|-----------------------------
A|-----------------------------
E|-----------------------------

Verso 5:
E|---------------------------------------------------------------------
B|--------10--10—10~----------------------------------8—8/10--10--10---
G|--------------------9-9/10--10---------------------------------------
D|-----10--------------------------------------------------------------
A|---8------8---8---------------------------------------------8-8-8----
E|--------------------8-8/10-------10-10~--10-10-10---8----------------

E|-----8-----------------------------------
B|--10----8--8-8/10--10---10--8—--6---8----
G|-----------------------------------------
D|-----------------------------------------
A|-----------------------------------------
E|-----------8-8/10--10--------------------

(Refrão)

Solo:
E|-----17--------------------------------------------------------------
B|--22---20-20~-20b—17~--17/18/15~--15/13—13/15-15/13-13/15-15~--15/13-
G|---------------------------------------------------------------------
D|---------------------------------------------------------------------
A|---------------------------------------------------------------------
E|---------------------------------------------------------------------

E|---------------------------------------------------------------------
B|----13/10~~~~--13/10-------------------------------------------------
G|-------------------------------14~~-14-14-14-14----------------------
D|----------------------12h14p12-------------------14/12—14/10-10/12---
A|------------------------------------------------------------------12-
E|---------------------------------------------------------------------

E|----------------------------------------------------------
B|----------18/17--17---12-13-12-15~--10—10/13/10/8----10---
G|--14------------------------------------------------------
D|----------------------------------------------------------
A|----------------------------------------------------------
E|----------------------------------------------------------

(Verso 1)
Scar tissue that I wished you saw
Sarcastic Mister Know-it-All
Close your eyes and I'll kiss you 'cause
With the birds I'll share

(Refrão)
With the birds I'll share
This lonely view
With the birds I'll share
This lonely view

(Verso 2)
Push me up against the wall
Young Kentucky Girl in a push-up bra
Fallin' all over myself
To lick your heart and taste you health 'cause

(Refrão)

(Verso 3)
Blood loss in a bathroom stall
Southern girl with a scarlet drawl
Wave good-bye to ma and pa 'cause

(Refrão)

(Verso 4)
Soft spoken with a broken jaw
Step outside but not to brawl in
Autumn's sweet we call it fall
I'll make it to the moon if I have to crawl and

(Refrão)


Enviada por Sem inscrição
Nº de acordes: 0