Fig. 1
E-------------------------------------------------------------------------------------------------------
B-------------------------------------------------------------------------------------------------------
G--8-----------8---8---7--8-------7--8---7--8---8---7--8-------7--8---7--8---8-----12---8----7----------
D--10----------10--10--8--10------8--10--8--10--10--8--10------8--10--8--10--10----13---10---8----8-----
A-------------------------------------------------------------------------------------------------10----
E-------------------------------------------------------------------------------------------------------

E-------------------------------------------------------------------------------------------------------
B----------------------------------------------------------------------------------8----9----8----------
G--7/8---------8---8---7--8-------7--8---7--8---8---7--8-------7--8---7--8---8-----8----8----8----7-----
D--8/10--------10--10--8--10------8--10--8--10--10--8--10------8--10--8--10--10-------------------8-----
A-------------------------------------------------------------------------------------------------------
E-------------------------------------------------------------------------------------------------------

Fig. 2
E-------------------------------------------------------------------------------------------------------
B-------------------------------------------------------------------------------------------------------
G--7/8--------------------------------------8---8---7--8-------7--8---7--8---12---12---8----7-----------
D--8/10-------------------------------------10--10--8--10------8--10--8--10--10---13---10---8----8------
A------------------------------------------------------------------------------------------------10-----
E-------------------------------------------------------------------------------------------------------

E-------------------------------------------------------------------------------------------------------
B----------------------------------------------------------------------------------8----9----8----------
G--7/8--------------------------------------8---8---7--8-------7--8---7--8---12----8----8----8----7-----
D--8/10-------------------------------------10--10--8--10------8--10--8--10--10-------------------8-----
A-------------------------------------------------------------------------------------------------------
E-------------------------------------------------------------------------------------------------------

E-------------------------------------------------------------------------------------------------------
B-------------------------------------------------------------------------------------------------------
G--7/8---------8---8---7--8-------7--8---7--8---8---7--8-------7--8---7--8---12----12---8----7----------
D--8/10--------10--10--8--10------8--10--8--10--10--8--10------8--10--8--10--10----13---10---8----8-----
A-------------------------------------------------------------------------------------------------10----
E-------------------------------------------------------------------------------------------------------

E-------------------------------------------------------------------------------------------------------
B----------------------------------------------------------------------------------8----9----8----------
G--7/8---------8---8---7--8-------7--8---7--8---8---7--8-------7--8---7--8---12----8----8----8----7-----
D--8/10--------10--10--8--10------8--10--8--10--10--8--10------8--10--8--10--10-------------------8-----
A-------------------------------------------------------------------------------------------------------
E-------------------------------------------------------------------------------------------------------

E-------------------------------------------------------------------------------------------------------
B-------------------------------------------------------------------------------------------------------
G--7/8---------8---8---7--8-------7--8---7--8---8---7--8-------7--8---7--8---12----12---8----7----------
D--8/10--------10--10--8--10------8--10--8--10--10--8--10------8--10--8--10--10----13---10---8----8-----
A-------------------------------------------------------------------------------------------------10----
E-------------------------------------------------------------------------------------------------------

E-------------------------------------------------------------------------------------------------------
B----------------------------------------------------------------------------------8----9----11---9--8--
G--7/8---------8---8---7--8-------7--8---7--8---8---7--8-------7--8---7--8---12----8----8----8----8--8--
D--8/10--------10--10--8--10------8--10--8--10--10--8--10------8--10--8--10--10-------------------------
A-------------------------------------------------------------------------------------------------------
E-------------------------------------------------------------------------------------------------------

Fig. 3
E-------------------------------------------------------------------------------------------------------
B-------------------------------------------11------8---------------------------------------------------
G--8---------------10fb---10------------------------10fb----------10-----8---------10---fb---r----8--7--
D-------------------------------------------------------------------------------------------------------
A-------------------------------------------------------------------------------------------------------
E-------------------------------------------------------------------------------------------------------

E--------------------------------------------------------------------------------------------11---------
B-------------------------------------------11------11h13-----------------------------------------------
G--8---------------10fb---10--------------------12----------------10rhb--8---------10---fb------(12)-r--
D-------------------------------------------------------------------------------------------------------
A-------------------------------------------------------------------------------------------------------
E-------------------------------------------------------------------------------------------------------

E-------------------------------------------------------------------------------------------------------
B-------------------------------------------11------8---------------------------------------------------
G--8---------------10fb---10------------------------10fb----------10-----8---------10---fb---r----8--7--
D-------------------------------------------------------------------------------------------------------
A-------------------------------------------------------------------------------------------------------
E-------------------------------------------------------------------------------------------------------

E-------------------------------------------------------------------------------------------------------
B-------------------------------------------------------------------------------------------------------
G--8---------------10fb---10----------------7------------------------------------------------8----------
D----------------------------------------------8--8/10------------8-----------------------------8-------
A---------------------------------------------------------------------108---------6---8/10-------108--
E-------------------------------------------------------------------------------------------------------

Fig. 4
E-------------------------------------------------------------------------------------------------------
B-------------------------------------------------------------------------------------------------------
G--------------8---8---7--8-------7--8---7--8---8---7--8-------7--8---7--8---8-----12---8----7----------
D--------------10--10--8--10------8--10--8--10--10--8--10------8--10--8--10--10----13---10---8----8-----
A--6----------------------------------------------------------------------------------------------10----
E-------------------------------------------------------------------------------------------------------

E-------------------------------------------------------------------------------------------------------
B----------------------------------------------------------------------------------8----9----8----------
G--7/8---------8---8---7--8-------7--8---7--8---8---7--8-------7--8---7--8---8-----8----8----8----7-----
D--8/10--------10--10--8--10------8--10--8--10--10--8--10------8--10--8--10--10-------------------8-----
A-------------------------------------------------------------------------------------------------------
E-------------------------------------------------------------------------------------------------------

Fig. 5
E-------------------------------------------------------------------------------------------------------
B-------------------------------------------11------8---------------------------------------------------
G--8---------------10fb---10------------------------10fb----------10-----8---------10---fb---r----8--7--
D-------------------------------------------------------------------------------------------------------
A-------------------------------------------------------------------------------------------------------
E-------------------------------------------------------------------------------------------------------

E--------------------------------------------------------------------------------------------11---------
B-------------------------------------------11------11h13-----------------------------------------------
G--8---------------10fb---10--------------------12----------------10rhb--8------8--10---fb-------pb--r--
D-------------------------------------------------------------------------------------------------------
A-------------------------------------------------------------------------------------------------------
E-------------------------------------------------------------------------------------------------------

E-------------------------------------------------------------------------------------------------------
B-------------------------------------------11------8---------------------------------------------------
G--8fb----r--------10fb---10------------------------10fb----------10-----8---------10---fb---r----8--7--
D-------------------------------------------------------------------------------------------------------
A-------------------------------------------------------------------------------------------------------
E-------------------------------------------------------------------------------------------------------

E-------------------------------------------------------------------------------------------------------
B-------------------------------------------11------11h13---------11------------------------------------
G--8---------------10fb---10--------------------12---------------------10rb----8--10--10--10p8---10p8---
D---------------------------------------------------------------------------------------------10-----10-
A-------------------------------------------------------------------------------------------------------
E-------------------------------------------------------------------------------------------------------

E-------------------------------------------------------------------------------------------------------
B--8----------------------------------------11------8---------------------------------------------------
G--8---------------10fb---10------------------------10fb----------10rb---8---------10---fb---r----8--7--
D-------------------------------------------------------------------------------------------------------
A-------------------------------------------------------------------------------------------------------
E-------------------------------------------------------------------------------------------------------

E-------------------------------------------------------------------------------------------------------
B------------------------------------------------------------------------8--------------8---------8--8--
G--8---------------10fb---10----------------7----------------------------8--------------8---------8--8--
D----------------------------------------------8--8h10------------108----------------------------------
A-------------------------------------------------------------------------------------------------------
E-------------------------------------------------------------------------------------------------------

Fig. 6
E---------------------------------------8---------------------------------------------------------------
B------------9--------------9---11-------------11---9----8------------------8----9------11-----9----8---
G--10-------------10--------10----------------------10---8-------8----------8-----------------------8---
D------10---------------10----------10-----10------------8----8------8--8-------------------------------
A-------------------------------------------------------------------------------------------------------
E-------------------------------------------------------------------------------------------------------

E-------------------------------------------------------------------------------------------------------
B-------------------------------------------------------------------------------------------------------
G--10-----------------------10--12------13-----12---10---8------10----8-----8----10-10----12----10-10---
D--11--------11-------------11----------------------11---10-----10----10----10---12-12-12----12-12-12---
A--11----11----------11---------------------------------------------------------------------------------
E-------------------------------------------------------------------------------------------------------

E---------------------------------------8---------------------------------------------------------------
B------------9--------------9---11-------------11---9----8------------------8----9------11-----9----8---
G--10-------------10--------10----------------------10---8-------8----------8----8------8------8----8---
D------10---------------10----------10-----10------------8----8------8--8-------------------------------
A-------------------------------------------------------------------------------------------------------
E-------------------------------------------------------------------------------------------------------

E-------------------------------------------------------------------------------------------------------
B-------------------------------------------------------------------------------------------------------
G--10-----------------------10--12------13-----12---10---8------10----8----------8----8----8----8-------
D--11--------11---11--------11----------------------11---10-----10----10---------10---10---10---10------
A--11----11----------11---------------------------------------------------------------------------------
E-------------------------------------------------------------------------------------------------------

E--------------------------------------------------
B--------------------------------------------------
G-----10-----12---10-10--------10-----10---10-10---
D--12----12--12---12-12-----12-12-12--12---12-12---
A--------------------------------------------------
E--------------------------------------------------

Fig. 7
E--8-------8-----------8---------------8----------------------------------------------------------------
B--11fb------11-8-11fb---11-8-11fb-11----11-8-11fb-11----11p8-----8----8—11fb-11--8----8-11fb-11---8----
G-------------------------------------------------------------10----10--------------10---------------10-
D-------------------------------------------------------------------------------------------------------
A-------------------------------------------------------------------------------------------------------
E-------------------------------------------------------------------------------------------------------

E-------------------------------------------------------------------------------------------------------
B--8----------------------------------------------------------------------------------------------------
G----10rhbp8-10-10rhbp8--10--10rbp8--10--10rbp8---10---10rbp8-10-10rbp8--8---------8-10rbp8---------8fb-
D----------------------------------------------------------------------10---10-8-10---------10-8-10-----
A-------------------------------------------------------------------------------------------------------
E-------------------------------------------------------------------------------------------------------

E---------------------------------------------------------------------------------------------13fb-(15)-
B-------------------------------------------------------------11--13—13ohb-13--11-13-13—13p11-----------
G--8----------8fb-8-------------8fb--8------------8fb-8---/12-------------------------------------------
D-----10-8-10---------10-8-10-----------10--8--10-------------------------------------------------------
A-------------------------------------------------------------------------------------------------------
E-------------------------------------------------------------------------------------------------------
   Gradually release bend………………………………………..
E--(15)-(15)-(15)-(15)-(14)--(14)--(14)---13-11-13—13fb-11fb-r------------------------------------------
B--------------------------------------------------------------13-11-13-13fb-r--------------------------
G------------------------------------------------------------------------------12/10-8-10-10hb-10-8h10--
D-------------------------------------------------------------------------------------------------------
A-------------------------------------------------------------------------------------------------------
E-------------------------------------------------------------------------------------------------------

Fig. 8
E-------------------------------------------------------------------------------------------------------
B-------------------------------------------------------------------------------------------------------
G--8-----------8---8---7--8-------7--8---7--8---8---7--8-------7--8---7--8---12----12---8----7----------
D--------------10--10--8--10------8--10--8--10--10--8--10------8--10--8--10--10----13---10---8----8-----
A-------------------------------------------------------------------------------------------------10----
E-------------------------------------------------------------------------------------------------------

E-------------------------------------------------------------------------------------------------------
B----------------------------------------------------------------------------------8----9----8----------
G--7/8---------8---8---7--8-------7--8---7--8---8---7--8-------7--8---7--8---12----8----8----8----7-----
D--8/10--------10--10--8--10------8--10--8--10--10--8--10------8--10--8--10--10-------------------8-----
A-------------------------------------------------------------------------------------------------------
E-------------------------------------------------------------------------------------------------------

E-------------------------------------------------------------------------------------------------------
B-------------------------------------------------------------------------------------------------------
G--7/8----------------/7--8-------7--8---7--8---8---7--8-------7--8---7--8---12----12---8----7----------
D--8/10---------------/8--10------8--10--8--10--10--8--10------8--10--8--10--10----13---10---8----8-----
A-------------------------------------------------------------------------------------------------10----
E-------------------------------------------------------------------------------------------------------

E-------------------------------------------------------------------------------------------------------
B----------------------------------------------------------------------------------8----9----8----------
G--7/8---------8---8---7--8-------7--8---7--8---8---7--8-------7--8---7--8---12----8----8----8----7-----
D--8/10--------10--10--8--10------8--10--8--10--10--8--10------8--10--8--10--10-------------------8-----
A-------------------------------------------------------------------------------------------------------
E-------------------------------------------------------------------------------------------------------

E-------------------------------------------------------------------------------------------------------
B-------------------------------------------------------------------------------------------------------
G--7/8---------8---8---7--8-------7--8---7--8---8---7--8-------7--8---7--8---12----12---8----7----------
D--8/10--------10--10--8--10------8--10--8--10--10--8--10------8--10--8--10--10----13---10---8----8-----
A-------------------------------------------------------------------------------------------------10----
E-------------------------------------------------------------------------------------------------------

E-------------------------------------------------------------------------------------------------------
B----------------------------------------------------------------------------------8----9----8----------
G--7/8---------8---8---7--8-------7--8---7--8---8---7--8-------7--8---7--8---12----8----8----8----7-----
D--8/10--------10--10--8--10------8--10--8--10--10--8--10------8--10--8--10--10-------------------8-----
A-------------------------------------------------------------------------------------------------------
E-------------------------------------------------------------------------------------------------------

E-------------------------------------------------------------------------------------------------------
B-------------------------------------------------------------------------------------------------------
G----7/8------------------------------------------------------------------------------------------------
D----8/10-----------------------------------------------------------------------------------------------
A-------------------------------------------------------------------------------------------------------
E-------------------------------------------------------------------------------------------------------

Arrangement

Fig. 1
Fig. 2
Fig. 3
Fig. 4
Fig. 2
Fig. 5
Fig. 6
Fig. 7
Fig. 8



Enviada por Sem inscrição
Nº de acordes: 0